#----------------------------------PLEASE NOTE---------------------------------#
#This file is the author's own work and represents their interpretation of the #
#song. You may only use this file for private study, scholarship, or research. #
#------------------------------------------------------------------------------#

THE COVEN
As recorded by BLOOD VACUUM
(From the 2010 Album TEMPORAL STORM II)

Transcribed by m.calestino

Words by m.calestino/J.gonsalves Music by m.calestino/j.gonsalves


Gtr I (E A D G B E) - 'rhythm'
Gtr II (E A D G B E) - 'keys'
Gtr III (E A D G B E) - 'lead'
Gtr IV (E A D G B E) - 'organ'

  Q=96
 4/4
  Gtr II
   W           +W            +W            +W
|-----------|-------------|-------------|---------|
|-----------|-------------|-------------|---------|
|--9--------|--(9)--------|--(9)--------|--(9)----|
|--9--------|--(9)--------|--(9)--------|--(9)----|
|-10--------|-(10)--------|-(10)--------|-(10)----|
|--0--------|--(0)--------|--(0)--------|--(0)----|


 3/4
  Gtrs II, IV
  H    H      H    H      Q   Q   Q   Q
|------2----|-----------|-----3---2---5---|
|------3----|-0----3----|-1--(1)--3---7---|
|-4----2----|-0----2----|-0-------2--(2)--|
|-5----0----|-2----4----|-2---0---4--(4)--|
|-5---------|------5----|-3--(3)--5--(5)--|
|-3----2----|-0----5----|-3--(3)--5--(5)--|


  Q=112
 4/4
  W
|-3-----------------------|-------------------------|
|-3-----------------------|-------------------------|
|-4-----------------------|-------------------------|
|-5-----------------------|-------------------------|
|-5-----------------------|-------------------------|
|-3-----------------------|-------------------------|
|
| Gtr I
| |-3-| |-3-| |-3-| |-3-|   |-3-| |-3-| |-3-| |-3-|
| E E E E E E E E E E E E   E E E E E E E E E E E E
|-------------------------|-------------------------|
|-------------------------|-------------------------|
|-------------9-9-9-9-9-9-|-------------9-9-9-9-9-9-|
|-------------9-9-9-9-9-9-|-------------9-9-9-9-9-9-|
|-------------7-7-7-7-7-7-|-------------7-7-7-7-7-7-|
|-0-0-0-0-0-0-------------|-0-0-0-0-0-0-------------|


|-------------------------|---------------------------|
|-------------------------|---------------------------|
|-------------------------|---------------------------|
|-------------------------|---------------------------|
|-------------------------|---------------------------|
|-------------------------|---------------------------|
|
| |-3-| |-3-| |-3-| |-3-|   |-3-| |-3-| |-3-| |-3-|
| E E E E E E E E E E E E   E E E E E E E E E E E E
|-------------------------|---------------------------|
|-------------------------|---------------------------|
|-------------9-9-9-9-9-9-|-------------9-9-9-9-9-9---|
|-------------9-9-9-9-9-9-|-------------9-9-9-9-9-9---|
|-------------7-7-7-7-7-7-|-------------7-7-7-7-7-7---|
|-0-0-0-0-0-0-------------|-0-0-0-0-0-0---------------|


 4/4
  Gtrs II, IV
  Q     Q     Q      Q        Q      Q     Q      Q
|-7-----------8------------|-11------------8------------|
|-------8-----------10-----|--------12-----------10-----|
|--------------------------|----------------------------|
|--------------------------|----------------------------|
|--------------------------|----------------------------|
|--------------------------|----------------------------|
|
| Gtr I
| |-3-| |-3-| |-3-|  |-3-|    |-3-|  |-3-| |-3-|  |-3-|
| E E E E E E E E E  E E E    E E E  E E E E E E  E E E
|--------------------------|----------------------------|
|--------------------------|----------------------------|
|-------------9-9-9--9-9-9-|---------------9-9-9--9-9-9-|
|-------------9-9-9--9-9-9-|---------------9-9-9--9-9-9-|
|-------------7-7-7--7-7-7-|---------------7-7-7--7-7-7-|
|-0-0-0-0-0-0--------------|--0-0-0--0-0-0--------------|


  Q     Q     Q     Q       Q     Q     Q     Q
|-7-----------5-----------|-3-----------2-------------|
|-------8-----------7-----|-------5-----------4-------|
|-------------------------|---------------------------|
|-------------------------|---------------------------|
|-------------------------|---------------------------|
|-------------------------|---------------------------|
|
| |-3-| |-3-| |-3-| |-3-|   |-3-| |-3-| |-3-| |-3-|
| E E E E E E E E E E E E   E E E E E E E E E E E E
|-------------------------|---------------------------|
|-------------------------|---------------------------|
|-------------9-9-9-9-9-9-|-------------9-9-9-9-9-9---|
|-------------9-9-9-9-9-9-|-------------9-9-9-9-9-9---|
|-------------7-7-7-7-7-7-|-------------7-7-7-7-7-7---|
|-0-0-0-0-0-0-------------|-0-0-0-0-0-0---------------|


 4/4
  Gtrs II, IV
  Q     Q     Q      Q        Q      Q     Q      Q
|-7-----------8------------|-11------------8------------|
|-------8-----------10-----|--------12-----------10-----|
|--------------------------|----------------------------|
|--------------------------|----------------------------|
|--------------------------|----------------------------|
|--------------------------|----------------------------|
|
| Gtr I
| |-3-| |-3-| |-3-|  |-3-|    |-3-|  |-3-| |-3-|  |-3-|
| E E E E E E E E E  E E E    E E E  E E E E E E  E E E
|--------------------------|----------------------------|
|--------------------------|----------------------------|
|-------------9-9-9--9-9-9-|---------------9-9-9--9-9-9-|
|-------------9-9-9--9-9-9-|---------------9-9-9--9-9-9-|
|-------------7-7-7--7-7-7-|---------------7-7-7--7-7-7-|
|-0-0-0-0-0-0--------------|--0-0-0--0-0-0--------------|


  Q     Q     Q     Q       Q     Q     Q     Q
|-7-----------5-----------|-3-----------2-------------|
|-------8-----------7-----|-------5-----------4-------|
|-------------------------|---------------------------|
|-------------------------|---------------------------|
|-------------------------|---------------------------|
|-------------------------|---------------------------|
|
| |-3-| |-3-| |-3-| |-3-|   |-3-| |-3-| |-3-| |-3-|
| E E E E E E E E E E E E   E E E E E E E E E E E E
|-------------------------|---------------------------|
|-------------------------|---------------------------|
|-------------9-9-9-9-9-9-|-------------9-9-9-9-9-9---|
|-------------9-9-9-9-9-9-|-------------9-9-9-9-9-9---|
|-------------7-7-7-7-7-7-|-------------7-7-7-7-7-7---|
|-0-0-0-0-0-0-------------|-0-0-0-0-0-0---------------|


 4/4
  Gtrs II, IV
  Q     Q     Q      Q        Q      Q     Q      Q
|-7-----------8------------|-11------------8------------|
|-------8-----------10-----|--------12-----------10-----|
|--------------------------|----------------------------|
|--------------------------|----------------------------|
|--------------------------|----------------------------|
|--------------------------|----------------------------|
|
| Gtr I
| |-3-| |-3-| |-3-|  |-3-|    |-3-|  |-3-| |-3-|  |-3-|
| E E E E E E E E E  E E E    E E E  E E E E E E  E E E
|--------------------------|----------------------------|
|--------------------------|----------------------------|
|-------------9-9-9--9-9-9-|---------------9-9-9--9-9-9-|
|-------------9-9-9--9-9-9-|---------------9-9-9--9-9-9-|
|-------------7-7-7--7-7-7-|---------------7-7-7--7-7-7-|
|-0-0-0-0-0-0--------------|--0-0-0--0-0-0--------------|


  Q     Q     Q     Q       Q     Q     Q     Q
|-7-----------5-----------|-3-----------2-------------|
|-------8-----------7-----|-------5-----------4-------|
|-------------------------|---------------------------|
|-------------------------|---------------------------|
|-------------------------|---------------------------|
|-------------------------|---------------------------|
|
| |-3-| |-3-| |-3-| |-3-|   |-3-| |-3-| |-3-| |-3-|
| E E E E E E E E E E E E   E E E E E E E E E E E E
|-------------------------|---------------------------|
|-------------------------|---------------------------|
|-------------9-9-9-9-9-9-|-------------9-9-9-9-9-9---|
|-------------9-9-9-9-9-9-|-------------9-9-9-9-9-9---|
|-------------7-7-7-7-7-7-|-------------7-7-7-7-7-7---|
|-0-0-0-0-0-0-------------|-0-0-0-0-0-0---------------|


 4/4
  Gtr III
  |-3-| |-3-| |-3-| |-3-|   |-3-| |-3-| |-3-| |-3-|
  E E E E E E E E E E E E   E E E E E E E E E E E E
|-2p0---------3p0---------|-5p0---------7p0---------|
|-----0-4-1-0-----0-5---0-|-----0-7---0-----0-8-7---|
|---------------------5---|---------8-------------9-|
|-------------------------|-------------------------|
|-------------------------|-------------------------|
|-------------------------|-------------------------|
|
| Gtr I
| |-3-| |-3-| |-3-| |-3-|   |-3-| |-3-| |-3-| |-3-|
| E E E E E E E E E E E E   E E E E E E E E E E E E
|-------------------------|-------------------------|
|-------------------------|-------------------------|
|-------------9-9-9-9-9-9-|-------------9-9-9-9-9-9-|
|-------------9-9-9-9-9-9-|-------------9-9-9-9-9-9-|
|-------------7-7-7-7-7-7-|-------------7-7-7-7-7-7-|
|-0-0-0-0-0-0-------------|-0-0-0-0-0-0-------------|


  |-3-|  |-3--|  |-3-|  |--3--|   |-3-|  |-3--| |-3-| |-3-|
  E E E  E  E E  E E E  E  E  E   E E E  E  E E E E E E E E
|-8p0-----------11p0------------|-8p0-----------7p0-----------|
|-----0-10----0------0-12-------|-----0-10----------0-8-7-----|
|----------11-------------12-11-|----------11-8-----------9---|
|-------------------------------|-----------------------------|
|-------------------------------|-----------------------------|
|-------------------------------|-----------------------------|
|
| |-3-|  |-3--|  |-3-|  |--3--|   |-3-|  |-3--| |-3-| |-3-|
| E E E  E  E E  E E E  E  E  E   E E E  E  E E E E E E E E
|-------------------------------|-----------------------------|
|-------------------------------|-----------------------------|
|----------------9-9-9--9--9--9-|---------------9-9-9-9-9-9---|
|----------------9-9-9--9--9--9-|---------------9-9-9-9-9-9---|
|----------------7-7-7--7--7--7-|---------------7-7-7-7-7-7---|
|-0-0-0--0--0-0-----------------|-0-0-0--0--0-0---------------|


 4/4
  Gtr III
  |-3-| |-3-| |-3-| |-3-|   |-3-| |-3-| |-3-| |-3-|
  E E E E E E E E E E E E   E E E E E E E E E E E E
|-2p0---------3p0---------|-5p0---------7p0---------|
|-----0-4-1-0-----0-5---0-|-----0-7---0-----0-8-7---|
|---------------------5---|---------8-------------9-|
|-------------------------|-------------------------|
|-------------------------|-------------------------|
|-------------------------|-------------------------|
|
| Gtr I
| |-3-| |-3-| |-3-| |-3-|   |-3-| |-3-| |-3-| |-3-|
| E E E E E E E E E E E E   E E E E E E E E E E E E
|-------------------------|-------------------------|
|-------------------------|-------------------------|
|-------------9-9-9-9-9-9-|-------------9-9-9-9-9-9-|
|-------------9-9-9-9-9-9-|-------------9-9-9-9-9-9-|
|-------------7-7-7-7-7-7-|-------------7-7-7-7-7-7-|
|-0-0-0-0-0-0-------------|-0-0-0-0-0-0-------------|


  |-3-|  |-3--|  |-3-|  |--3--|   |-3-|  |-3--| |-3-| |-3-|
  E E E  E  E E  E E E  E  E  E   E E E  E  E E E E E E E E
|-8p0-----------11p0------------|-8p0-----------7p0-----------|
|-----0-10----0------0-12-------|-----0-10----------0-8-7-8---|
|----------11-------------12-11-|----------11-8---------------|
|-------------------------------|-----------------------------|
|-------------------------------|-----------------------------|
|-------------------------------|-----------------------------|
|
| |-3-|  |-3--|  |-3-|  |--3--|   |-3-|  |-3--| |-3-| |-3-|
| E E E  E  E E  E E E  E  E  E   E E E  E  E E E E E E E E
|-------------------------------|-----------------------------|
|-------------------------------|-----------------------------|
|----------------9-9-9--9--9--9-|---------------9-9-9-9-9-9---|
|----------------9-9-9--9--9--9-|---------------9-9-9-9-9-9---|
|----------------7-7-7--7--7--7-|---------------7-7-7-7-7-7---|
|-0-0-0--0--0-0-----------------|-0-0-0--0--0-0---------------|


  Gtr III
  W
|------|
|-8----|
|------|
|------|
|------|
|------|
|
| Gtr I
| W
|------|
|------|
|-7----|
|-5----|
|-3----|
|------|


  Gtr I
  |-3-|                     |-3-|
  E E E                     E E E
|-------------------------|-------------------------|
|-------------------------|-------------------------|
|-------------------------|-------------------------|
|-------------------------|-------------------------|
|-2-2-2-------------------|-2-2-2-------------------|
|-0-0-0-------------------|-0-0-0-------------------|
|
| Gtr I
| |-3-| |-3-| |-3-| |-3-|   |-3-| |-3-| |-3-| |-3-|
| E E E E E E E E E E E E   E E E E E E E E E E E E
|-------------------------|-------------------------|
|-------------------------|-------------------------|
|-------------------------|-------------------------|
|-------------------------|-------------------------|
|-------4-5-4-------5-7-5-|-------4-5-4-------5-7-5-|
|-0-0-0-2-3-2-0-0-0-3-5-3-|-0-0-0-2-3-2-0-0-0-3-5-3-|


  |-3-| |-3-| |-3-| |-3-|
  E E E E E E E E E E E E   Q  Q  Q  Q
|-------------------------|-------------|
|-------------------------|-------------|
|-------------------------|-2--4--5--4--|
|-------------------------|-2--4--5--4--|
|-------4-5-4-------5-7-5-|-0--2--3--6--|
|-0-0-0-2-3-2-0-0-0-3-5-3-|-------------|
|
| |-3-| |-3-| |-3-| |-3-|
| E E E E E E E E E E E E   Q  Q  Q  Q
|-------------------------|-------------|
|-------------------------|-------------|
|-------------------------|-2--4--5--4--|
|-------------------------|-2--4--5--4--|
|-------4-5-4-------5-7-5-|-0--2--3--6--|
|-0-0-0-2-3-2-0-0-0-3-5-3-|-------------|


  Gtr I
  |-3-| |-3-| |-3-| |-3-|   |-3-| |-3-| |-3-| |-3-|
  E E E E E E E E E E E E   E E E E E E E E E E E E
|-------------------------|-------------------------|
|-------------------------|-------------------------|
|-------------------------|-------------------------|
|-------------------------|-------------------------|
|-------4-5-4-------5-7-5-|-------4-5-4-------5-7-5-|
|-0-0-0-2-3-2-0-0-0-3-5-3-|-0-0-0-2-3-2-0-0-0-3-5-3-|
|
| Gtr I
| |-3-| |-3-| |-3-| |-3-|   |-3-| |-3-| |-3-| |-3-|
| E E E E E E E E E E E E   E E E E E E E E E E E E
|-------------------------|-------------------------|
|-------------------------|-------------------------|
|-------------------------|-------------------------|
|-------------------------|-------------------------|
|-------4-5-4-------5-7-5-|-------4-5-4-------5-7-5-|
|-0-0-0-2-3-2-0-0-0-3-5-3-|-0-0-0-2-3-2-0-0-0-3-5-3-|


  |-3-| |-3-| |-3-| |-3-|
  E E E E E E E E E E E E   Q  Q  Q  Q
|-------------------------|-------------|
|-------------------------|-------------|
|-------------------------|-2--4--5--4--|
|-------------------------|-2--4--5--4--|
|-------4-5-4-------5-7-5-|-0--2--3--6--|
|-0-0-0-2-3-2-0-0-0-3-5-3-|-------------|
|
| |-3-| |-3-| |-3-| |-3-|
| E E E E E E E E E E E E   Q  Q  Q  Q
|-------------------------|-------------|
|-------------------------|-------------|
|-------------------------|-2--4--5--4--|
|-------------------------|-2--4--5--4--|
|-------4-5-4-------5-7-5-|-0--2--3--6--|
|-0-0-0-2-3-2-0-0-0-3-5-3-|-------------|


  Gtr III
  |-3-| |-3-| |-3-| |-3-|   |-3-| |-3-| |-3-| |-3-|
  E E E E E E E E E E E E   E E E E E E E E E E E E
|-------2-3-0-------2-5---|-------2-3-0-------2-5---|
|-0-1-4-------0-1-4-----4-|-0-1-4-------0-1-4-----4-|
|-------------------------|-------------------------|
|-------------------------|-------------------------|
|-------------------------|-------------------------|
|-------------------------|-------------------------|
|
|-------------------------|-------------------------|
|-------------------------|-------------------------|
|-------------------------|-------------------------|
|-------------------------|-------------------------|
|-------------------------|-------------------------|
|-------------------------|-------------------------|
|
| Gtr I
| |-3-| |-3-| |-3-| |-3-|   |-3-| |-3-| |-3-| |-3-|
| E E E E E E E E E E E E   E E E E E E E E E E E E
|-------------------------|-------------------------|
|-------------------------|-------------------------|
|-------------------------|-------------------------|
|-------------------------|-------------------------|
|-------4-5-4-------5-7-5-|-------4-5-4-------5-7-5-|
|-0-0-0-2-3-2-0-0-0-3-5-3-|-0-0-0-2-3-2-0-0-0-3-5-3-|


  |-3-| |-3-| |-3-| |-3-|
  E E E E E E E E E E E E   S S S S S S S S S S S S  S  S S S
|-------2-3-0-------2-5---|-2h5-2p0-3h7-3p0-5h8-5p0--7h11-7p0----|
|-0-1-4-------0-1-4-----4-|--------------------------------------|
|-------------------------|--------------------------------------|
|-------------------------|--------------------------------------|
|-------------------------|--------------------------------------|
|-------------------------|--------------------------------------|
|
|                           Gtr II
|                           Q       Q       Q        Q
|-------------------------|-5-------7-------8-------11-----------|
|-------------------------|--------------------------------------|
|-------------------------|--------------------------------------|
|-------------------------|--------------------------------------|
|-------------------------|--------------------------------------|
|-------------------------|--------------------------------------|
|
| |-3-| |-3-| |-3-| |-3-|
| E E E E E E E E E E E E   Q       Q       Q        Q
|-------------------------|--------------------------------------|
|-------------------------|--------------------------------------|
|-------------------------|-2-------4-------5--------4-----------|
|-------------------------|-2-------4-------5--------4-----------|
|-------4-5-4-------5-7-5-|-0-------2-------3--------6-----------|
|-0-0-0-2-3-2-0-0-0-3-5-3-|--------------------------------------|


  Gtr III
  |-3-| |-3-| |-3-| |-3-|   |-3-| |-3-| |-3-| |-3-|
  E E E E E E E E E E E E   E E E E E E E E E E E E
|-------2-3-0-------2-5---|-------2-3-0-------2-5---|
|-0-1-4-------0-1-4-----4-|-0-1-4-------0-1-4-----4-|
|-------------------------|-------------------------|
|-------------------------|-------------------------|
|-------------------------|-------------------------|
|-------------------------|-------------------------|
|
|-------------------------|-------------------------|
|-------------------------|-------------------------|
|-------------------------|-------------------------|
|-------------------------|-------------------------|
|-------------------------|-------------------------|
|-------------------------|-------------------------|
|
| Gtr I
| |-3-| |-3-| |-3-| |-3-|   |-3-| |-3-| |-3-| |-3-|
| E E E E E E E E E E E E   E E E E E E E E E E E E
|-------------------------|-------------------------|
|-------------------------|-------------------------|
|-------------------------|-------------------------|
|-------------------------|-------------------------|
|-------4-5-4-------5-7-5-|-------4-5-4-------5-7-5-|
|-0-0-0-2-3-2-0-0-0-3-5-3-|-0-0-0-2-3-2-0-0-0-3-5-3-|


  |-3-| |-3-| |-3-| |-3-|
  E E E E E E E E E E E E   S S S S S S S S S S S S  S  S S S
|-------2-3-0-------2-5---|-2h5-2p0-3h7-3p0-5h8-5p0--7h11-7p0----|
|-0-1-4-------0-1-4-----4-|--------------------------------------|
|-------------------------|--------------------------------------|
|-------------------------|--------------------------------------|
|-------------------------|--------------------------------------|
|-------------------------|--------------------------------------|
|
|                           Gtrs II, IV
|                           Q       Q       Q        Q
|-------------------------|-5-------7-------8-------11-----------|
|-------------------------|--------------------------------------|
|-------------------------|--------------------------------------|
|-------------------------|--------------------------------------|
|-------------------------|--------------------------------------|
|-------------------------|--------------------------------------|
|
| |-3-| |-3-| |-3-| |-3-|
| E E E E E E E E E E E E   Q       Q       Q        Q
|-------------------------|--------------------------------------|
|-------------------------|--------------------------------------|
|-------------------------|-2-------4-------5--------4-----------|
|-------------------------|-2-------4-------5--------4-----------|
|-------4-5-4-------5-7-5-|-0-------2-------3--------6-----------|
|-0-0-0-2-3-2-0-0-0-3-5-3-|--------------------------------------|


  Gtr III
    W
|-<12>----|
|-<12>----|
|---------|
|---------|
|---------|
|---------|
|
| Gtr II
|   W
|--12-----|
|--12-----|
|---------|
|---------|
|---------|
|---------|
|
| Gtr I
|   W
|---------|
|---------|
|---------|
|---2-----|
|---2-----|
|---0-----|


    >
    W
|-<12>-----------------------|-------------------------|
|-<12>-----------------------|-------------------------|
|----------------------------|-------------------------|
|----------------------------|-------------------------|
|----------------------------|-------------------------|
|----------------------------|-------------------------|
|
| Gtr I
|   |-3--| |-3-| |-3-| |-3-|   |-3-| |-3-| |-3-| |-3-|
|   E  E E E E E E E E E E E   E E E E E E E E E E E E
|----------------------------|-------------------------|
|----------------------------|-------------------------|
|----------------------------|-------4-2-4-------5-4-5-|
|----------5-4-5-------2-1-2-|-------5-4-5-------7-5-7-|
|----------7-6-7-------3-2-3-|-------------------------|
|---0--0-0-------0-0-0-------|-0-0-0-------0-0-0-------|


                            Gtrs II, IV
                            Q  Q  Q  Q
|-------------------------|-7--5--3--2--|
|-------------------------|-------------|
|-------------------------|-------------|
|-------------------------|-------------|
|-------------------------|-------------|
|-------------------------|-------------|
|
| |-3-| |-3-| |-3-| |-3-|
| E E E E E E E E E E E E   Q  Q  Q  Q
|-------------------------|-------------|
|-------------------------|-------------|
|-------------------------|-4--2--------|
|-------5-4-5-------2-1-2-|-4--2--5--4--|
|-------7-6-7-------3-2-3-|-2--0--5--4--|
|-0-0-0-------0-0-0-------|-------3--2--|


  Gtrs II, IV
  Q
|-0-----------------------|-------------------------|
|-------------------------|-------------------------|
|-------------------------|-------------------------|
|-------------------------|-------------------------|
|-------------------------|-------------------------|
|-------------------------|-------------------------|
|
|-------------------------|-------------------------|
|-------------------------|-------------------------|
|-------------------------|-------------------------|
|-------------------------|-------------------------|
|-------------------------|-------------------------|
|-------------------------|-------------------------|
|
| Gtr I
| |-3-| |-3-| |-3-| |-3-|   |-3-| |-3-| |-3-| |-3-|
| E E E E E E E E E E E E   E E E E E E E E E E E E
|-------------------------|-------------------------|
|-------------------------|-------------------------|
|-------------------------|-------4-2-4-------5-4-5-|
|-------5-4-5-------2-1-2-|-------5-4-5-------7-5-7-|
|-------7-6-7-------3-2-3-|-------------------------|
|-0-0-0-------0-0-0-------|-0-0-0-------0-0-0-------|


                            Gtr III
                            |-3--| |-3-|  |-3-|  |-3-|
                            E  E E E E E  E E E  E E E
|-------------------------|-------------------------------|
|-------------------------|----------8--------------------|
|-------------------------|--------9---9-11-9-8-----------|
|-------------------------|------9--------------10-9-7----|
|-------------------------|-7h10--------------------------|
|-------------------------|-------------------------------|
|
|                           Gtrs II, IV
|                           Q    Q   Q    Q
|-------------------------|-7----5---3----2---------------|
|-------------------------|-------------------------------|
|-------------------------|-------------------------------|
|-------------------------|-------------------------------|
|-------------------------|-------------------------------|
|-------------------------|-------------------------------|
|
| |-3-| |-3-| |-3-| |-3-|
| E E E E E E E E E E E E   Q      Q      Q      Q
|-------------------------|-------------------------------|
|-------------------------|-------------------------------|
|-------------------------|-4------2----------------------|
|-------5-4-5-------2-1-2-|-4------2------5------4--------|
|-------7-6-7-------3-2-3-|-2------0------5------4--------|
|-0-0-0-------0-0-0-------|---------------3------2--------|


  Gtr III
  |-3-| |-3-| |-3-|  |-3--|   |-3-| |-3-| |-3-|  |-3--|
  E E E E E E E E E  E E  E   E E E E E E E E E  E E  E
|---------------------------|---------------------------|
|---------------------------|---------------------------|
|-------9-8-9---------------|---------------------------|
|-------------------10-9-10-|-------9-7-9---------------|
|-7-7-7-------7-7-7---------|-7-7-7-------7-7-7-10-9-10-|
|---------------------------|---------------------------|
|
| Gtrs II, IV
| Q
|-0-------------------------|---------------------------|
|---------------------------|---------------------------|
|---------------------------|---------------------------|
|---------------------------|---------------------------|
|---------------------------|---------------------------|
|---------------------------|---------------------------|
|
| Gtr I
| |-3-| |-3-| |-3-|  |-3--|   |-3-| |-3-| |-3-|  |-3--|
| E E E E E E E E E  E E  E   E E E E E E E E E  E E  E
|---------------------------|---------------------------|
|---------------------------|---------------------------|
|---------------------------|-------4-2-4--------5-4--5-|
|-------5-4-5--------2-1--2-|-------5-4-5--------7-5--7-|
|-------7-6-7--------3-2--3-|---------------------------|
|-0-0-0-------0-0-0---------|-0-0-0-------0-0-0---------|


  |-3-| |-3-| |-3-|  |-3--|   |-3--| |-3-|  |-3-|  |-3-|
  E E E E E E E E E  E E  E   E  E E E E E  E E E  E E E
|---------------------------|-------------------------------|
|---------------------------|----------8--------------------|
|-------9-8-9---------------|--------9---9-11-9-8-----------|
|-------------------10-9-10-|------9--------------10-9-7----|
|-7-7-7-------7-7-7---------|-7h10--------------------------|
|---------------------------|-------------------------------|
|
|                               Gtrs II, IV
|                             Q      Q      Q      Q
|---------------------------|-7------5------3------2--------|
|---------------------------|-------------------------------|
|---------------------------|-------------------------------|
|---------------------------|-------------------------------|
|---------------------------|-------------------------------|
|---------------------------|-------------------------------|
|
| |-3-| |-3-| |-3-|  |-3--|
| E E E E E E E E E  E E  E   Q      Q      Q      Q
|---------------------------|-------------------------------|
|---------------------------|-------------------------------|
|---------------------------|-4------2----------------------|
|-------5-4-5--------2-1--2-|-4------2------5------4--------|
|-------7-6-7--------3-2--3-|-2------0------5------4--------|
|-0-0-0-------0-0-0---------|---------------3------2--------|


  Gtr III
  |-3-| |-3-| |-3-|  |-3--|   |-3-| |-3-| |-3-|  |-3--|
  E E E E E E E E E  E E  E   E E E E E E E E E  E E  E
|---------------------------|---------------------------|
|---------------------------|---------------------------|
|-------9-8-9---------------|---------------------------|
|-------------------10-9-10-|-------9-7-9---------------|
|-7-7-7-------7-7-7---------|-7-7-7-------7-7-7-10-9-10-|
|---------------------------|---------------------------|
|
| Gtrs II, IV
| Q
|-0-------------------------|---------------------------|
|---------------------------|---------------------------|
|---------------------------|---------------------------|
|---------------------------|---------------------------|
|---------------------------|---------------------------|
|---------------------------|---------------------------|
|
| Gtr I
| |-3-| |-3-| |-3-|  |-3--|   |-3-| |-3-| |-3-|  |-3--|
| E E E E E E E E E  E E  E   E E E E E E E E E  E E  E
|---------------------------|---------------------------|
|---------------------------|---------------------------|
|---------------------------|-------4-2-4--------5-4--5-|
|-------5-4-5--------2-1--2-|-------5-4-5--------7-5--7-|
|-------7-6-7--------3-2--3-|---------------------------|
|-0-0-0-------0-0-0---------|-0-0-0-------0-0-0---------|


  |-3-| |-3-| |-3-|  |-3--|   |-3--| |-3-|  |-3-|  |-3-|
  E E E E E E E E E  E E  E   E  E E E E E  E E E  E E E
|---------------------------|-------------------------------|
|---------------------------|----------8--------------------|
|-------9-8-9---------------|--------9---9-11-9-8-----------|
|-------------------10-9-10-|------9--------------10-9-7----|
|-7-7-7-------7-7-7---------|-7h10--------------------------|
|---------------------------|-------------------------------|
|
|                             Gtrs II, IV
|                             Q      Q      Q      Q
|---------------------------|-7------5------3------2--------|
|---------------------------|-------------------------------|
|---------------------------|-------------------------------|
|---------------------------|-------------------------------|
|---------------------------|-------------------------------|
|---------------------------|-------------------------------|
|
| |-3-| |-3-| |-3-|  |-3--|
| E E E E E E E E E  E E  E   Q      Q      Q      Q
|---------------------------|-------------------------------|
|---------------------------|-------------------------------|
|---------------------------|-4------2----------------------|
|-------5-4-5--------2-1--2-|-4------2------5------4--------|
|-------7-6-7--------3-2--3-|-2------0------5------4--------|
|-0-0-0-------0-0-0---------|---------------3------2--------|


  Gtrs II, IV
  Q   W
|-0--------|
|-0--------|
|----------|
|----------|
|----------|
|----------|
|
| Gtr I
| Q   W
|----------|
|----------|
|----------|
|-2--------|
|-2--------|
|-0--------|


  Q=90
  Gtr I
  Q  S S E S S E S S E   Q  S S E S S E S S E
|----------------------|----------------------|
|----------------------|----------------------|
|----------------------|----------------------|
|-1------2-----2-----2-|-1------2-----2-----2-|
|-1------2-----2-----2-|-1------2-----2-----2-|
|----0-0---0-0---0-0---|----0-0---0-0---0-0---|


  Q  S S E S S E S S E   Q  S S E S S E S S E
|----------------------|----------------------|
|----------------------|----------------------|
|----------------------|----------------------|
|-1------2-----2-----2-|-1------2-----2-----2-|
|-1------2-----2-----2-|-1------2-----2-----2-|
|----0-0---0-0---0-0---|----0-0---0-0---0-0---|


  Q=90
  Gtr I
  Q  S S E S S E S S E   Q  S S E S S E S S E
|----------------------|----------------------|
|----------------------|----------------------|
|----------------------|----------------------|
|-1------2-----2-----2-|-1------2-----2-----2-|
|-1------2-----2-----2-|-1------2-----2-----2-|
|----0-0---0-0---0-0---|----0-0---0-0---0-0---|


  Q  S S E S S E S S E   Q  S S E S S E S S E
|----------------------|----------------------|
|----------------------|----------------------|
|----------------------|----------------------|
|-1------2-----2-----2-|-1------2-----2-----2-|
|-1------2-----2-----2-|-1------2-----2-----2-|
|----0-0---0-0---0-0---|----0-0---0-0---0-0---|


  W          H    H      Q  S S E S S E S S E   Q  S S E S S E S S E
|----------|-----------|----------------------|----------------------|
|----------|-----------|----------------------|----------------------|
|----------|-----------|----------------------|----------------------|
|-4--------|-3----2----|-1------2-----2-----2-|-1------2-----2-----2-|
|-4--------|-3----2----|-1------2-----2-----2-|-1------2-----2-----2-|
|-2--------|-1---------|----0-0---0-0---0-0---|----0-0---0-0---0-0---|


  W          H    H      Q  S S E S S E S S E   Q  S S E S S E S S E
|----------|-----------|----------------------|----------------------|
|----------|-----------|----------------------|----------------------|
|----------|-----------|----------------------|----------------------|
|-4--------|-3----2----|-1------2-----2-----2-|-1------2-----2-----2-|
|-4--------|-3----2----|-1------2-----2-----2-|-1------2-----2-----2-|
|-2--------|-1---------|----0-0---0-0---0-0---|----0-0---0-0---0-0---|


  Q  S S E S S E S S E   Q  S S E H
|----------------------|---------------|
|----------------------|---------------|
|----------------------|---------------|
|-1------2-----2-----2-|-1------2------|
|-1------2-----2-----2-|-1------2------|
|----0-0---0-0---0-0---|----0-0--------|


  Q=90
  Gtr I
  Q  S S E S S E S S E   Q  S S E S S E S S E
|----------------------|----------------------|
|----------------------|----------------------|
|----------------------|----------------------|
|-1------2-----2-----2-|-1------2-----2-----2-|
|-1------2-----2-----2-|-1------2-----2-----2-|
|----0-0---0-0---0-0---|----0-0---0-0---0-0---|


  Q  S S E S S E S S E   Q  S S E S S E S S E
|----------------------|----------------------|
|----------------------|----------------------|
|----------------------|----------------------|
|-1------2-----2-----2-|-1------2-----2-----2-|
|-1------2-----2-----2-|-1------2-----2-----2-|
|----0-0---0-0---0-0---|----0-0---0-0---0-0---|


  Q=90
  Gtr I
  Q  S S E S S E S S E   Q  S S E S S E S S E
|----------------------|----------------------|
|----------------------|----------------------|
|----------------------|----------------------|
|-1------2-----2-----2-|-1------2-----2-----2-|
|-1------2-----2-----2-|-1------2-----2-----2-|
|----0-0---0-0---0-0---|----0-0---0-0---0-0---|


  Q  S S E S S E S S E   Q  S S E S S E S S E
|----------------------|----------------------|
|----------------------|----------------------|
|----------------------|----------------------|
|-1------2-----2-----2-|-1------2-----2-----2-|
|-1------2-----2-----2-|-1------2-----2-----2-|
|----0-0---0-0---0-0---|----0-0---0-0---0-0---|


  Gtrs II, IV
  W          H    H
|-2--------|-1----0----|----------------------|----------------------|
|-2--------|-1----0----|----------------------|----------------------|
|----------|-----------|----------------------|----------------------|
|----------|-----------|----------------------|----------------------|
|----------|-----------|----------------------|----------------------|
|----------|-----------|----------------------|----------------------|
|
| W          H    H      Q  S S E S S E S S E   Q  S S E S S E S S E
|----------|-----------|----------------------|----------------------|
|----------|-----------|----------------------|----------------------|
|----------|-----------|----------------------|----------------------|
|-4--------|-3----2----|-1------2-----2-----2-|-1------2-----2-----2-|
|-4--------|-3----2----|-1------2-----2-----2-|-1------2-----2-----2-|
|-2--------|-1---------|----0-0---0-0---0-0---|----0-0---0-0---0-0---|


  Gtr III
  ~~~~~~~~~~~~~~~~~~
  W          H    H      Q  S S E S S E S S E   Q  S S E S S E S S E
|----------|-----------|----------------------|----------------------|
|----------|-----------|----------------------|----------------------|
|-3--------|-2----1----|-0--------------------|-0--------------------|
|-4--------|-3----2----|-1------2-----2-----2-|-1------2-----2-----2-|
|-4--------|-3----2----|-1------2-----2-----2-|-1------2-----2-----2-|
|----------|-----------|----0-0---0-0---0-0---|----0-0---0-0---0-0---|
|
| W          H    H      Q  S S E S S E S S E   Q  S S E S S E S S E
|----------|-----------|----------------------|----------------------|
|----------|-----------|----------------------|----------------------|
|----------|-----------|----------------------|----------------------|
|-4--------|-3----2----|-1------2-----2-----2-|-1------2-----2-----2-|
|-4--------|-3----2----|-1------2-----2-----2-|-1------2-----2-----2-|
|-2--------|-1---------|----0-0---0-0---0-0---|----0-0---0-0---0-0---|


  Q=90
  Gtr I
  Q  S S E S S E S S E   Q  S S E S S E S S E
|----------------------|----------------------|
|----------------------|----------------------|
|-0--------------------|-0--------------------|
|-1------2-----2-----2-|-1------2-----2-----2-|
|-1------2-----2-----2-|-1------2-----2-----2-|
|----0-0---0-0---0-0---|----0-0---0-0---0-0---|


  Q  S S E S S E S S E   Q  S S E S S E S S E
|----------------------|----------------------|
|----------------------|----------------------|
|-0--------------------|-0--------------------|
|-1------2-----2-----2-|-1------2-----2-----2-|
|-1------2-----2-----2-|-1------2-----2-----2-|
|----0-0---0-0---0-0---|----0-0---0-0---0-0---|


  W
|------|
|------|
|-0----|
|-1----|
|-1----|
|------|


  Q=118
  Q  S S S S S S S S S S S S   Q  S S S S S S S S S S S S
|----------------------------|----------------------------|
|----------------------------|----------------------------|
|-7--------------------------|-7--------------------------|
|-5--------------------------|-5--------------------------|
|-3--3-3-3-3-3-3-3-3-3-3-3-3-|-3--3-3-3-3-3-3-3-3-3-3-3-3-|
|----------------------------|----------------------------|


  Q  S S S S S S S S S S S S   Q  S S S S S S S S S S S S
|----------------------------|-------------------------------|
|-4--------------------------|-4-----------------------------|
|-4--------------------------|-4-----------------------------|
|-4--------------------------|-4-----------------------------|
|-2--2-2-2-2-2-2-2-2-2-2-2-2-|-2--2-2-2-2-2-2-2-2-2-2-2-2----|
|----------------------------|-------------------------------|


  Q=118
  Gtrs II, IV
  W                            +W
|-8--------------------------|-(8)--------------------------|
|----------------------------|------------------------------|
|-5--------------------------|-(5)--------------------------|
|----------------------------|------------------------------|
|----------------------------|------------------------------|
|----------------------------|------------------------------|
|
| Q  S S S S S S S S S S S S    Q   S S S S S S S S S S S S
|----------------------------|------------------------------|
|----------------------------|------------------------------|
|-7--------------------------|--7---------------------------|
|-5--------------------------|--5---------------------------|
|-3--3-3-3-3-3-3-3-3-3-3-3-3-|--3---3-3-3-3-3-3-3-3-3-3-3-3-|
|----------------------------|------------------------------|


  W                            +W
|-7--------------------------|-(7)-----------------------------|
|----------------------------|---------------------------------|
|-4--------------------------|-(4)-----------------------------|
|----------------------------|---------------------------------|
|----------------------------|---------------------------------|
|----------------------------|---------------------------------|
|
| Q  S S S S S S S S S S S S    Q   S S S S S S S S S S S S
|----------------------------|---------------------------------|
|-4--------------------------|--4------------------------------|
|-4--------------------------|--4------------------------------|
|-4--------------------------|--4------------------------------|
|-2--2-2-2-2-2-2-2-2-2-2-2-2-|--2---2-2-2-2-2-2-2-2-2-2-2-2----|
|----------------------------|---------------------------------|


  Q=118
  Gtrs II, IV
  W                            +W
|-8--------------------------|-(8)--------------------------|
|----------------------------|------------------------------|
|-5--------------------------|-(5)--------------------------|
|----------------------------|------------------------------|
|----------------------------|------------------------------|
|----------------------------|------------------------------|
|
| Q  S S S S S S S S S S S S    Q   S S S S S S S S S S S S
|----------------------------|------------------------------|
|----------------------------|------------------------------|
|-7--------------------------|--7---------------------------|
|-5--------------------------|--5---------------------------|
|-3--3-3-3-3-3-3-3-3-3-3-3-3-|--3---3-3-3-3-3-3-3-3-3-3-3-3-|
|----------------------------|------------------------------|


  W                            +W
|-7--------------------------|-(7)-----------------------------|
|----------------------------|---------------------------------|
|-4--------------------------|-(4)-----------------------------|
|----------------------------|---------------------------------|
|----------------------------|---------------------------------|
|----------------------------|---------------------------------|
|
| Q  S S S S S S S S S S S S    Q   S S S S S S S S S S S S
|----------------------------|---------------------------------|
|-4--------------------------|--4------------------------------|
|-4--------------------------|--4------------------------------|
|-4--------------------------|--4------------------------------|
|-2--2-2-2-2-2-2-2-2-2-2-2-2-|--2---2-2-2-2-2-2-2-2-2-2-2-2----|
|----------------------------|---------------------------------|


  Q=100
  W        W        W
|-8--------7--------0----|
|-------------------0----|
|-5--------4--------0----|
|------------------------|
|------------------------|
|------------------------|
|
| Gtr I
| W        W        W
|------------------------|
|------------------------|
|-5--------4-------------|
|-5--------4--------2----|
|-3--------2--------2----|
|-3--------2--------0----|


  Q=96
  Gtr III
  S S S S S S  S S S  S S S S S E E   S S S S S S  S S S  S S S S S E E
|-7p0---------10-0-0--8-0-0-7-0-3-5-|-7p0---------10-0-0--8-0-0-7-0-3-5-|
|-----0-8-7---------------------3-5-|-----0-8-7---------------------3-5-|
|-----------9-----------------------|-----------9-----------------------|
|-----------------------------------|-----------------------------------|
|-----------------------------------|-----------------------------------|
|-----------------------------------|-----------------------------------|
|
| Gtr I
| S S S S S S  S S S  S S S S S E E   S S S S S S  S S S  S S S S S E E
|-----------------------------------|-----------------------------------|
|-----------------------------------|-----------------------------------|
|-----------------------------------|-----------------------------------|
|-9-----5-----12-----10-----9---5-7-|-9-----5-----12-----10-----9---5-7-|
|-7-----5------7------7-----7---5-7-|-7-----5------7------7-----7---5-7-|
|---0-0---0-0----0-0----0-0---0-----|---0-0---0-0----0-0----0-0---0-----|


  Gtr III
   S S S  S S S S S S S S S E E    S S S  S S S S S S S S S E E
|-11-0-0--8-0-0-7-0-0-5-0-0-3-2-|-11-0-0--8-0-0-7-0-0-5-0-0-3-2-|
|---------------------------3-2-|---------------------------3-2-|
|-------------------------------|-------------------------------|
|-------------------------------|-------------------------------|
|-------------------------------|-------------------------------|
|-------------------------------|-------------------------------|
|
| Gtr I
|  S S S  S S S S S S S S S E E    S S S  S S S S S S S S S E E
|-------------------------------|-------------------------------|
|-------------------------------|-------------------------------|
|--8----------------------------|--8----------------------------|
|--9-----10-----9-----7-----5-4-|--9-----10-----9-----7-----5-4-|
|----6-6-10-6-6-9-6-6-7-6-6-5-4-|----6-6-10-6-6-9-6-6-7-6-6-5-4-|
|-------------------------------|-------------------------------|


  Q=96
  Gtr III
  S S S S S S  S S S  S S S S S E E   S S S S S S  S S S  S S S S S E E
|-7p0---------10-0-0--8-0-0-7-0-3-5-|-7p0---------10-0-0--8-0-0-7-0-3-5-|
|-----0-8-7---------------------3-5-|-----0-8-7---------------------3-5-|
|-----------9-----------------------|-----------9-----------------------|
|-----------------------------------|-----------------------------------|
|-----------------------------------|-----------------------------------|
|-----------------------------------|-----------------------------------|
|
| Gtr I
| S S S S S S  S S S  S S S S S E E   S S S S S S  S S S  S S S S S E E
|-----------------------------------|-----------------------------------|
|-----------------------------------|-----------------------------------|
|-----------------------------------|-----------------------------------|
|-9-----5-----12-----10-----9---5-7-|-9-----5-----12-----10-----9---5-7-|
|-7-----5------7------7-----7---5-7-|-7-----5------7------7-----7---5-7-|
|---0-0---0-0----0-0----0-0---0-----|---0-0---0-0----0-0----0-0---0-----|


  Gtr II
   W                              +W
|-------------------------------|--------------------------------|
|--7----------------------------|-(7)----------------------------|
|--8----------------------------|-(8)----------------------------|
|-------------------------------|--------------------------------|
|-------------------------------|--------------------------------|
|-------------------------------|--------------------------------|
|
| Gtr III
|  S S S  S S S S S S S S S E E    S  S S  S S S S S S S S S E E
|-11-0-0--8-0-0-7-0-0-5-0-0-3-2-|-11--0-0--8-0-0-7-0-0-5-0-0-3-2-|
|---------------------------3-2-|----------------------------3-2-|
|-------------------------------|--------------------------------|
|-------------------------------|--------------------------------|
|-------------------------------|--------------------------------|
|-------------------------------|--------------------------------|
|
| Gtr I
|  S S S  S S S S S S S S S E E    S  S S  S S S S S S S S S E E
|-------------------------------|--------------------------------|
|-------------------------------|--------------------------------|
|--8----------------------------|--8-----------------------------|
|--9-----10-----9-----7-----5-4-|--9------10-----9-----7-----5-4-|
|----6-6-10-6-6-9-6-6-7-6-6-5-4-|-----6-6-10-6-6-9-6-6-7-6-6-5-4-|
|-------------------------------|--------------------------------|


  Gtr III
   S    W
|------<5>-----|
|-<5>-(<5>)----|
|--------------|
|--------------|
|--------------|
|--------------|
|
| Gtr I
|  W
|--------------|
|--------------|
|--------------|
|--2-----------|
|--2-----------|
|--0-----------|


  Q=112
  Gtr III
|-------------------------|-------------------------|
|-------------------------|-------------------------|
|-------------------------|-------------------------|
|-------------------------|-------------------------|
|-------------------------|-------------------------|
|-------------------------|-------------------------|
|
|-------------------------|-------------------------|
|-------------------------|-------------------------|
|-------------------------|-------------------------|
|-------------------------|-------------------------|
|-------------------------|-------------------------|
|-------------------------|-------------------------|
|
| Gtr I
| |-3-| |-3-| |-3-| |-3-|   |-3-| |-3-| |-3-| |-3-|
| E E E E E E E E E E E E   E E E E E E E E E E E E
|-------------------------|-------------------------|
|-------------------------|-------------------------|
|-------------------------|-------4-2-4-------5-4-5-|
|-------5-4-5-------2-1-2-|-------5-4-5-------7-5-7-|
|-------7-6-7-------3-2-3-|-------------------------|
|-0-0-0-------0-0-0-------|-0-0-0-------0-0-0-------|


                            |-3--| |-3-|  |-3-|  |-3-|
                            E  E E E E E  E E E  E E E
|-------------------------|-------------------------------|
|-------------------------|----------8--------------------|
|-------------------------|--------9---9-11-9-8-----------|
|-------------------------|------9--------------10-9-7----|
|-------------------------|-7h10--------------------------|
|-------------------------|-------------------------------|
|
|                           Gtrs II, IV
|                           Q    Q   Q    Q
|-------------------------|-7----5---3----2---------------|
|-------------------------|-------------------------------|
|-------------------------|-------------------------------|
|-------------------------|-------------------------------|
|-------------------------|-------------------------------|
|-------------------------|-------------------------------|
|
| |-3-| |-3-| |-3-| |-3-|
| E E E E E E E E E E E E   Q      Q      Q      Q
|-------------------------|-------------------------------|
|-------------------------|-------------------------------|
|-------------------------|-4------2----------------------|
|-------5-4-5-------2-1-2-|-4------2------5------4--------|
|-------7-6-7-------3-2-3-|-2------0------5------4--------|
|-0-0-0-------0-0-0-------|---------------3------2--------|


  Gtrs II, IV
  Q
|-0---------------------------|---------------------------------|
|-----------------------------|---------------------------------|
|-----------------------------|---------------------------------|
|-----------------------------|---------------------------------|
|-----------------------------|---------------------------------|
|-----------------------------|---------------------------------|
|
| Gtr III
| |-3-|  |-3--|  |-3--| |-3-|   |-3-|  |-3--|  |--3--|  |--3--|
| E E E  E E  E  E E  E E E E   E E E  E E  E  E  E  E  E  E  E
|-----------------------------|---------------------------------|
|-----------------------------|-8-7-8-10-8-10-12-10-12-13-12-13-|
|-----------------------9-8-9-|---------------------------------|
|---------------10-9-10-------|---------------------------------|
|-7-7-7-10-9-10---------------|---------------------------------|
|-----------------------------|---------------------------------|
|
| Gtr I
| |-3-|  |-3--|  |-3--| |-3-|   |-3-|  |-3--|  |--3--|  |--3--|
| E E E  E E  E  E E  E E E E   E E E  E E  E  E  E  E  E  E  E
|-----------------------------|---------------------------------|
|-----------------------------|---------------------------------|
|-----------------------------|--------4-2--4-----------5--4--5-|
|--------5-4--5---------2-1-2-|--------5-4--5-----------7--5--7-|
|--------7-6--7---------3-2-3-|---------------------------------|
|-0-0-0----------0-0--0-------|-0-0-0----------0--0--0----------|


                                                                  Gtrs II, IV
                                                                   Q        Q        Q        Q
|---------------------------------------------------------------|--7--------5--------3--------2----------|
|---------------------------------------------------------------|----------------------------------------|
|---------------------------------------------------------------|----------------------------------------|
|---------------------------------------------------------------|----------------------------------------|
|---------------------------------------------------------------|----------------------------------------|
|---------------------------------------------------------------|----------------------------------------|
|
|                                                                  |--3--|  |--3--|  |--3--|  |--3--|
|   E       Q          S     S  S  S    S    S   S  S    S    S    E  E  E  E  E  E  E  E  E  E  E  E
|-<12>---(<12>)-----------------------------^7-^12-^7-----------|-------------15-------------------------|
|---------<12>-------------------------^8---------------!8------|----------17----17-19-17-15-------------|
|---------------------------------^9-------------------------!9-|-------16-------------------17-16-14----|
|------------------------------^9-------------------------------|-14h17----------------------------------|
|---------------------^7h==^10----------------------------------|----------------------------------------|
|---------------------------------------------------------------|----------------------------------------|
|
|   |-----3-----| |--3---|      |----3----|      |----3----|
|   E  E        E E E    E      E    E    E      E    E    E       Q        Q        Q        Q
|---------------------------------------------------------------|----------------------------------------|
|---------------------------------------------------------------|----------------------------------------|
|---------------------------------------------------------------|--4--------2----------------------------|
|-----------------5-4----5-----------------------2----1----2----|--4--------2--------5--------4----------|
|-----------------7-6----7-----------------------3----2----3----|--2--------0--------5--------4----------|
|---0--0--------0---------------0----0----0---------------------|--------------------3--------2----------|


|-------------------------------------------------|-----------------------------------------|
|-------------------------------------------------|-----------------------------------------|
|-------------------------------------------------|-----------------------------------------|
|-------------------------------------------------|-----------------------------------------|
|-------------------------------------------------|-----------------------------------------|
|-------------------------------------------------|-----------------------------------------|
|
| Gtr III
|             ~~~                      ~~~                                           ~~~
|                                                     |--3--|  |--3--|
|   S.    S   Q         S    E      S  E.             E  E  E  E  E  E  E    S    S  E.
|-/14-----------------/19---19--------------------|-/20-------19-------17-----------20------|
|--------12------------------------17-------------|-----17-------19--------------19---------|
|-----------!11-----------------------16----------|--------17-------20------17--------------|
|-------------------------------------------------|-----------------------------------------|
|-------------------------------------------------|-----------------------------------------|
|-------------------------------------------------|-----------------------------------------|
|
|   |-----3-----| |---3---|    |----3-----| |-3-|     |--3--|  |--3--|  |--3---|     |-3--|
|   E  E        E E E     E    E E        E E E E     E  E  E  E  E  E  E E    E     E  E E
|-------------------------------------------------|-----------------------------------------|
|-------------------------------------------------|-----------------------------------------|
|-------------------------------------------------|------------4--2--4---------------5--4-5-|
|-----------------5-4-----5-----------------2-1-2-|------------5--4--5---------------7--5-7-|
|-----------------7-6-----7-----------------3-2-3-|-----------------------------------------|
|---0--0--------0--------------0-0--------0-------|---0--0--0-----------0-0----0------------|


                                          Gtrs II, IV
                                            Q           Q           Q           Q
|---------------------------------------|---7-----------5-----------3-----------2-------|
|---------------------------------------|-----------------------------------------------|
|---------------------------------------|-----------------------------------------------|
|---------------------------------------|-----------------------------------------------|
|---------------------------------------|-----------------------------------------------|
|---------------------------------------|-----------------------------------------------|
|
|               ~~~~~~~~~~~~                                                       ~~
|  S  S    S    Q        Q.                 S  S  S  S  S  S  S  S  S  S  S  S  S  Q
|-20-19---17----------------------------|-----------17-20-17----19p15----17p14----------|
|--------------19-------20--------------|--------19----------19-------17-------16-17----|
|---------------------------------------|-/17h20----------------------------------------|
|---------------------------------------|-----------------------------------------------|
|---------------------------------------|-----------------------------------------------|
|---------------------------------------|-----------------------------------------------|
|
|  |----3----|    |-3-|     |-3-| |-3-|
|  E    E    E    E E E     E E E E E E     Q           Q           Q           Q
|---------------------------------------|-----------------------------------------------|
|---------------------------------------|-----------------------------------------------|
|---------------------------------------|---4-----------2-------------------------------|
|-----------------5-4-5-----------2-1-2-|---4-----------2-----------5-----------4-------|
|-----------------7-6-7-----------3-2-3-|---2-----------0-----------5-----------4-------|
|--0----0----0--------------0-0-0-------|---------------------------3-----------2-------|


  Gtr III
   S S    S   S  S S    S   S  S S    S   S  S S    S   S    S S    S   S  S S    S   S  S S    S    S  S S    S   S
|-12p3----------12p2----------12p8----------12p7----------|-12p7----------12p5----------12p8-----------12p7----------|
|--------12p==5--------12p==4--------12p==5--------12p==4-|--------12p==8--------12p==7--------12p==10--------12p==8-|
|---------------------------------------------------------|----------------------------------------------------------|
|---------------------------------------------------------|----------------------------------------------------------|
|---------------------------------------------------------|----------------------------------------------------------|
|---------------------------------------------------------|----------------------------------------------------------|
|
| Gtr I
|  |---3----|    |---3----|    |---3----|    |---3----|      |---3----|    |---3----|    |---3----|     |---3----|
|  E   E    E    E   E    E    E   E    E    E   E    E      E   E    E    E   E    E    E   E    E     E   E    E
|---------------------------------------------------------|----------------------------------------------------------|
|---------------------------------------------------------|----------------------------------------------------------|
|---------------------------------------------------------|----------------4---2----4-------------------5---4----5---|
|----------------5---4----5------------------2---1----2---|----------------5---4----5-------------------7---5----7---|
|----------------7---6----7------------------3---2----3---|----------------------------------------------------------|
|--0---0----0------------------0---0----0-----------------|--0---0----0------------------0---0----0------------------|


   S S    S   S  S S    S   S  S S    S   S  S S    S   S
|-12p3----------12p2----------12p8----------12p7-------------|
|--------12p==5--------12p==4--------12p==5--------12p==4----|
|------------------------------------------------------------|
|------------------------------------------------------------|
|------------------------------------------------------------|
|------------------------------------------------------------|
|
|  |---3----|    |---3----|    |---3----|    |---3----|
|  E   E    E    E   E    E    E   E    E    E   E    E
|------------------------------------------------------------|
|------------------------------------------------------------|
|------------------------------------------------------------|
|----------------5---4----5------------------2---1----2------|
|----------------7---6----7------------------3---2----3------|
|--0---0----0------------------0---0----0--------------------|


  Gtrs II, IV
   Q         Q         Q         Q
|--7---------5---------3---------2--------|
|-----------------------------------------|
|-----------------------------------------|
|-----------------------------------------|
|-----------------------------------------|
|-----------------------------------------|
|
| Gtr III
|  S S  S S  S S  S S  S S  S S  S S  S S
|-12p7------12p5------12p3------12p2------|
|------12p8------12p7------12p5------12p4-|
|-----------------------------------------|
|-----------------------------------------|
|-----------------------------------------|
|-----------------------------------------|
|
| Gtr I
|  Q         Q         Q         Q
|-----------------------------------------|
|-----------------------------------------|
|--4---------2----------------------------|
|--4---------2---------5---------4--------|
|--2---------0---------5---------4--------|
|----------------------3---------2--------|


  Gtr III
   S S    S   S  S S    S   S  S S    S   S  S S    S   S    S S    S   S  S S    S   S  S S    S    S  S S    S   S
|-12p3----------12p2----------12p8----------12p7----------|-12p7----------12p5----------12p8-----------12p7----------|
|--------12p==5--------12p==4--------12p==5--------12p==4-|--------12p==8--------12p==7--------12p==10--------12p==8-|
|---------------------------------------------------------|----------------------------------------------------------|
|---------------------------------------------------------|----------------------------------------------------------|
|---------------------------------------------------------|----------------------------------------------------------|
|---------------------------------------------------------|----------------------------------------------------------|
|
| Gtr I
|  |---3----|    |---3----|    |---3----|    |---3----|      |---3----|    |---3----|    |---3----|     |---3----|
|  E   E    E    E   E    E    E   E    E    E   E    E      E   E    E    E   E    E    E   E    E     E   E    E
|---------------------------------------------------------|----------------------------------------------------------|
|---------------------------------------------------------|----------------------------------------------------------|
|---------------------------------------------------------|----------------4---2----4-------------------5---4----5---|
|----------------5---4----5------------------2---1----2---|----------------5---4----5-------------------7---5----7---|
|----------------7---6----7------------------3---2----3---|----------------------------------------------------------|
|--0---0----0------------------0---0----0-----------------|--0---0----0------------------0---0----0------------------|


   S S    S   S  S S    S   S  S S    S   S  S S    S   S
|-12p3----------12p2----------12p8----------12p7-------------|
|--------12p==5--------12p==4--------12p==5--------12p==4----|
|------------------------------------------------------------|
|------------------------------------------------------------|
|------------------------------------------------------------|
|------------------------------------------------------------|
|
|  |---3----|    |---3----|    |---3----|    |---3----|
|  E   E    E    E   E    E    E   E    E    E   E    E
|------------------------------------------------------------|
|------------------------------------------------------------|
|------------------------------------------------------------|
|----------------5---4----5------------------2---1----2------|
|----------------7---6----7------------------3---2----3------|
|--0---0----0------------------0---0----0--------------------|


  Gtrs II, IV
   Q         Q         Q         Q         Q
|--7---------5---------3---------2---------0--------|
|---------------------------------------------------|
|---------------------------------------------------|
|---------------------------------------------------|
|---------------------------------------------------|
|---------------------------------------------------|
|
| Gtr III
|                                          ~~
|  S S  S S  S S  S S  S S  S S  S S  S S  Q
|-12p7------12p5------12p3------12p2----------------|
|------12p8------12p7------12p5------12p4-/5--------|
|---------------------------------------------------|
|---------------------------------------------------|
|---------------------------------------------------|
|---------------------------------------------------|
|
| Gtr I
|  Q         Q         Q         Q         Q  H.
|---------------------------------------------------|
|---------------------------------------------------|
|--4---------2--------------------------------------|
|--4---------2---------5---------4---------2--------|
|--2---------0---------5---------4---------2--------|
|----------------------3---------2---------0--------|


  Q=90
  Gtr I
  Q  S S E S S E S S E   Q  S S E S S E S S E
|----------------------|----------------------|
|----------------------|----------------------|
|----------------------|----------------------|
|-1------2-----2-----2-|-1------2-----2-----2-|
|-1------2-----2-----2-|-1------2-----2-----2-|
|----0-0---0-0---0-0---|----0-0---0-0---0-0---|


  Q  S S E S S E S S E   Q  S S E S S E S S E
|----------------------|----------------------|
|----------------------|----------------------|
|----------------------|----------------------|
|-1------2-----2-----2-|-1------2-----2-----2-|
|-1------2-----2-----2-|-1------2-----2-----2-|
|----0-0---0-0---0-0---|----0-0---0-0---0-0---|


  Q=90
  Gtr I
  Q  S S E S S E S S E   Q  S S E S S E S S E
|----------------------|----------------------|
|----------------------|----------------------|
|----------------------|----------------------|
|-1------2-----2-----2-|-1------2-----2-----2-|
|-1------2-----2-----2-|-1------2-----2-----2-|
|----0-0---0-0---0-0---|----0-0---0-0---0-0---|


  Q  S S E S S E S S E   Q  S S E S S E S S E
|----------------------|----------------------|
|----------------------|----------------------|
|----------------------|----------------------|
|-1------2-----2-----2-|-1------2-----2-----2-|
|-1------2-----2-----2-|-1------2-----2-----2-|
|----0-0---0-0---0-0---|----0-0---0-0---0-0---|


  W          H    H      Q  S S E S S E S S E   Q  S S E S S E S S E
|----------|-----------|----------------------|----------------------|
|----------|-----------|----------------------|----------------------|
|----------|-----------|----------------------|----------------------|
|-4--------|-3----2----|-1------2-----2-----2-|-1------2-----2-----2-|
|-4--------|-3----2----|-1------2-----2-----2-|-1------2-----2-----2-|
|-2--------|-1---------|----0-0---0-0---0-0---|----0-0---0-0---0-0---|


  E H  Q.      H    H      Q  S S E S S E S S E   Q  S S E S S E S S E
|------------|-----------|----------------------|-----------------------|
|------------|-----------|----------------------|-----------------------|
|------------|-----------|----------------------|-----------------------|
|-4----------|-3----2----|-1------2-----2-----2-|-1------2-----2-----2--|
|-4----------|-3----2----|-1------2-----2-----2-|-1------2-----2-----2--|
|-2----------|-1---------|----0-0---0-0---0-0---|----0-0---0-0---0-0----|


  Q=90
  Gtr I
  Q  S S E S S E S S E   Q  S S E S S E S S E
|----------------------|----------------------|
|----------------------|----------------------|
|----------------------|----------------------|
|-1------2-----2-----2-|-1------2-----2-----2-|
|-1------2-----2-----2-|-1------2-----2-----2-|
|----0-0---0-0---0-0---|----0-0---0-0---0-0---|


  Q  S S E S S E S S E   Q  S S E S S E S S E
|----------------------|----------------------|
|----------------------|----------------------|
|----------------------|----------------------|
|-1------2-----2-----2-|-1------2-----2-----2-|
|-1------2-----2-----2-|-1------2-----2-----2-|
|----0-0---0-0---0-0---|----0-0---0-0---0-0---|


  Q=90
  Gtr I
  Q  S S E S S E S S E   Q  S S E S S E S S E
|----------------------|----------------------|
|----------------------|----------------------|
|----------------------|----------------------|
|-1------2-----2-----2-|-1------2-----2-----2-|
|-1------2-----2-----2-|-1------2-----2-----2-|
|----0-0---0-0---0-0---|----0-0---0-0---0-0---|


  Q  S S E S S E S S E   Q  S S E S S E S S E
|----------------------|----------------------|
|----------------------|----------------------|
|----------------------|----------------------|
|-1------2-----2-----2-|-1------2-----2-----2-|
|-1------2-----2-----2-|-1------2-----2-----2-|
|----0-0---0-0---0-0---|----0-0---0-0---0-0---|


  W
|------|
|------|
|------|
|-1----|
|-1----|
|------|



Duration Legend
---------------
W - whole; H - half; Q - quarter; E - 8th; S - 16th; T - 32nd; X - 64th; a - acciaccatura
+ - note tied to previous; . - note dotted; .. - note double dotted
Uncapitalized letters represent notes that are staccato (1/2 duration)
Irregular groupings are notated above the duration line
Duration letters will always appear directly above the note/fret number it represents the
duration for.  Duration letters with no fret number below them represent rests.  Multi-
bar rests are notated in the form Wxn, where n is the number of bars to rest for.  Low
melody durations appear below the staff

Tablature Legend
----------------
 h   - hammer-on
 p   - pull-off
 b   - bend
 pb  - pre-bend
 r   - bend release (if no number after the r, then release immediately)
 /\  - slide into or out of (from/to "nowhere")
 s   - legato slide
 S   - shift slide
<n> - natural harmonic
[n]  - artificial harmonic
n(n) - tapped harmonic
 ~   - vibrato
 tr  - trill
 T   - tap
 TP  - trem. picking
 PM  - palm muting
\n/  - tremolo bar dip; n = amount to dip
 \n  - tremolo bar down
 n/  - tremolo bar up
/n\  - tremolo bar inverted dip
 =   - hold bend; also acts as connecting device for hammers/pulls
 <> - volume swell (louder/softer)
 x   - on rhythm slash represents muted slash
 o   - on rhythm slash represents single note slash

Misc Legend
-----------
 |  - bar
||  - double bar
||o - repeat start
o|| - repeat end
*|  - double bar (ending)
 :  - bar (freetime)
 $  - Segno
 &  - Coda
Tempo markers - <E/E./Q/Q./H/H.> = BPM(8/16=s8/s16), where s8 = swing 8ths, s16 = swing 16ths


** Generated using Power Tab Editor by Brad Larsen: The Official Power Tab Web Site