#----------------------------------PLEASE NOTE---------------------------------#
#This file is the author's own work and represents their interpretation of the #
#song. You may only use this file for private study, scholarship, or research. #
#------------------------------------------------------------------------------#

THE STORM HAS PASSED AWAY
As recorded by Blood Vacuum
(From the 2006 Album HANDS ACROSS THE VOID)

Transcribed by M.Calestino

Words by M.Calestino Music by Matthew Calestino
Arranged by M.Calestino


Gtr I (D G C F A D) - 'piano'
Gtr II (D G C F A D) - 'strings'
Gtr III (D G C F A D) - 'rhythm'
Gtr IV (D G C F A D) - 'harpsichord'
Gtr V (D G C F A D) - 'clarinet'

  Q=74
 4/4
  Gtr I
  E  E   E   E   E  E E  E    E E  E  E E  E  E E
|---------------10---------|--8-------7-----------|
|------------8------8------|--0-0-----0-0----10-8-|
|--------9------------9----|--9---10-10---10------|
|---10------------------10-|-10------10------10-9-|
|-0-(0)-(0)-(0)-(0)--------|--0-------0-------3-2-|
|--------------------------|----------------------|


  E  E   E   E  E E E E   E E E E Q  Q
|---------------5-------|-3-2-0-2----2---|
|------------3----3-----|-0-0-0-3-1--3---|
|--------0----------0---|-0-0-0-0-0--0---|
|----4----------------4-|-2-2-2-0-2--0---|
|-----------------------|---------3--2---|
|-0-(0)-(0)-(0)---------|----------------|


  Gtrs IV, V
  H              Q   Q       Q    Q    Q     Q
|-5-------------12--------|--7---------8-----3---|
|-------------------------|----------------------|
|-------------------------|----------------------|
|-------------------------|----------------------|
|-------------------------|----------------------|
|-------------------------|----------------------|
|
| Gtr I
| E  E   E   E   E E E  E    E E  E  E E  E  E E
|---------------10--------|--8-------7-----------|
|------------8-----8------|--0-0-----0-0----10-8-|
|--------9-----------9----|--9---10-10---10------|
|---10-----------------10-|-10------10------10-9-|
|-0-(0)-(0)-(0)-----------|--0-------0-------3-2-|
|-------------------------|----------------------|


  Q      Q       Q.     E    E  E  E  E  E E  Q
|-0-------------10--------|-15-14-12-10-17---15--|
|-------------------------|----------------------|
|-------------------------|----------------------|
|-------------------------|----------------------|
|-------------------------|----------------------|
|-------------------------|----------------------|
|
| E  E   E   E   E  E E E    E  E  E  E  Q    Q
|----------------5--------|--3--2--0--2-------2--|
|------------3------3-----|--0--0--0--3--1----3--|
|--------0------------0---|--0--0--0--0--0----0--|
|----4------------------4-|--2--2--2--0--2----0--|
|-------------------------|--------------3----2--|
|-0-(0)-(0)-(0)-----------|----------------------|


  Gtrs IV, V
   H              Q   Q       Q    Q     Q     Q
|--8-------------12--------|--7----------8-----3---|
|-10-------------13--------|--8---------10-----5---|
|--------------------------|-----------------------|
|--------------------------|-----------------------|
|--------------------------|-----------------------|
|--------------------------|-----------------------|
|
| Gtr I
|  E  E   E   E   E E E  E    E E  E  E  E  E  E E
|----------------10--------|--8-------7------------|
|-------------8-----8------|--0-0-----0--0----10-8-|
|---------9-----------9----|--9---10-10----10------|
|----10-----------------10-|-10------10-------10-9-|
|--0-(0)-(0)-(0)-----------|--0-------0--------3-2-|
|--------------------------|-----------------------|


  Q      Q       Q.     E    E  E  E  E  E E  Q
|---------------10--------|-15-14-12-10-17---15--|
|-5--------------8--------|-17-15-13-12------15--|
|-4-----------------------|-------------17-------|
|-------------------------|----------------------|
|-------------------------|----------------------|
|-------------------------|----------------------|
|
| E  E   E   E   E  E E E    E  E  E  E  Q    Q
|----------------5--------|--3--2--0--2-------2--|
|------------3------3-----|--0--0--0--3--1----3--|
|--------0------------0---|--0--0--0--0--0----0--|
|----4------------------4-|--2--2--2--0--2----0--|
|-------------------------|--------------3----2--|
|-0-(0)-(0)-(0)-----------|----------------------|


  Gtrs IV, V
   >
   W
|-13---------------------|-----------------------|
|-11---------------------|-----------------------|
|------------------------|-----------------------|
|------------------------|-----------------------|
|------------------------|-----------------------|
|------------------------|-----------------------|
|
| Gtr I
|  E  E   E   E  E E E E   E  E   E   E  E E E E
|------------------------|---------------1-------|
|-------------1------1---|------------1----1-----|
|---------3------3-----3-|--------3----------3---|
|-----3------------3-----|----3----------------3-|
|--1-(1)-(1)-(1)---------|-0-(0)-(0)-(0)---------|
|------------------------|-----------------------|


|-----------------|-------------------|
|-----------------|-------------------|
|-----------------|-------------------|
|-----------------|-------------------|
|-----------------|-------------------|
|-----------------|-------------------|
|
| E E E E E E E E   E E E E E E E  E
|-------0---------|-------5-----------|
|-----6---6-------|-----8---8---0--3--|
|---7-------7---7-|---7-------7-------|
|-5-----------5---|-8-----------5--4--|
|-----------------|-------------------|
|-----------------|-------------------|


  Gtr I
  E  E   E   E   E  E E E   E E E E E E E E
|----------------0--------|---------0-------|
|------------8------8-----|-------8---8-----|
|--------9------------9---|-----9-------9---|
|----9------------------9-|---9-----------9-|
|-7-----------------------|-7---------------|
|-0-(0)-(0)-(0)-(0)-------|-----------------|


  E E E E E E E E   E E E E E E E E
|---------5-------|---------6-------|
|-------5---5-----|-------5---5-----|
|-----7-------7---|-----7-------7---|
|---7-----------7-|---7-----------7-|
|-5---------------|-5---------------|
|-----------------|-----------------|


  Gtr I
  E E E E E E E E   E E E E E E E E   E E E E E E E E   E E E E E E E E
|-----------------|-----------------|---------3-------|---------0---8-7-|
|-------3-----3---|-------3-----3---|-------3---3-----|-------6---6-6-6-|
|-----5---5-----5-|-----5---5-----5-|-----5-------5---|-4-4-7-------7-7-|
|---2-------2-----|---3-------3-----|---5-----------5-|---3-------------|
|-0---------------|-0---------------|-3---------------|-2---5-----------|
|-----------------|-----------------|-----------------|---1-------------|


  Gtr IV
  E  E E  E  E E  E  E   E E E  E E E  E E
|------8-10--8---10--8-|-----8-10-8---10-8-|
|----5----3----5--3----|---6----3---6--3---|
|-2----5-----5-------5-|-2---5----5------5-|
|----2---------2-------|---3--------3------|
|-0--------------------|-0-----------------|
|----------------------|-------------------|
|
| Gtr I
| E  E E  E  E E  E  E   E E E  E E E  E E
|----------------------|-------------------|
|---------3-------3----|--------3------3---|
|------5-----5-------5-|-----5----5------5-|
|----2---------2-------|---3--------3------|
|-0--------------------|-0-----------------|
|----------------------|-------------------|
|
|   Gtr II
| E  E E  E  E E  E  E   E E E  E E E  E E
|---12---17-12------12-|---8---13-8------8-|
|---10---10-10-5--5--5-|---6----6-6-6--6-6-|
|----5----5--5-5--5--5-|---5----5-5-5--5-5-|
|----2----2--2-------2-|---3----3-3-3--3-3-|
|----0-x--0--0-0--0--0-|---x-x--x-x------x-|
|----------------------|-0-1----1-1-1--1-1-|


  E  E E  E  E  E E  E   E  E   E  E  E  E E E
|------8-10-15-10-8----|-7------------0----8-7-|
|----8----3--8--3----8-|----6------6-----6-6-6-|
|-5----5----------5----|-4-(4)--7----------7-7-|
|----5---------------5-|----3------------------|
|-3--------------------|-----------------------|
|----------------------|-----------------------|
|
| E  E E  E  E  E E  E   E  E   E  E  E  E E E
|------------3---------|--------------0----8-7-|
|---------3-----3------|-----------6-----6-6-6-|
|------5----------5----|-4-(4)--7----------7-7-|
|----5---------------5-|----3------------------|
|-3--------------------|-2------5--------------|
|----------------------|----1------------------|
|
| E  E E  E  E  E E  E   E  E   E  E  E  E E E
|---20---22-20------20-|-7-----10-13-12-10-8-7-|
|----8----8--8--8-8--8-|----6------6--5--------|
|----5----5--5--5-5--5-|-4------7--------7-5-4-|
|----5----5--5-------5-|----3------3--2--------|
|----3----3--3--3-3--3-|-2------5--------5-3-2-|
|----3-x--3--3--3-3--3-|----1------------------|


  Gtr IV
  E  E E  E  E E  E  E   E E E  E E E  E E
|------8-10--8---10--8-|-----8-10-8---10-8-|
|----5----3----5--3----|---6----3---6--3---|
|-2----5-----5-------5-|-2---5----5------5-|
|----2---------2-------|---3--------3------|
|-0--------------------|-0-----------------|
|----------------------|-------------------|
|
| Gtr I
| E  E E  E  E E  E  E   E E E  E E E  E E
|----------------------|-------------------|
|---------3-------3----|--------3------3---|
|------5-----5-------5-|-----5----5------5-|
|----2---------2-------|---3--------3------|
|-0--------------------|-0-----------------|
|----------------------|-------------------|
|
|   Gtr II
| E  E E  E  E E  E  E   E E E  E E E  E E
|---12---17-12------12-|---8---13-8------8-|
|---10---10-10-5--5--5-|---6----6-6-6--6-6-|
|----5----5--5-5--5--5-|---5----5-5-5--5-5-|
|----2----2--2-------2-|---3----3-3-3--3-3-|
|----0-x--0--0-0--0--0-|---x-x--x-x------x-|
|----------------------|-0-1----1-1-1--1-1-|


  E  E E  E  E  E E  E   E  E   E  E  E  E E E
|------8-10-15-10-8----|-7------------0----8-7-|
|----8----3--8--3----8-|----6------6-----6-6-6-|
|-5----5----------5----|-4-(4)--7----------7-7-|
|----5---------------5-|----3------------------|
|-3--------------------|-----------------------|
|----------------------|-----------------------|
|
| E  E E  E  E  E E  E   E  E   E  E  E  E E E
|------------3---------|--------------0----8-7-|
|---------3-----3------|-----------6-----6-6-6-|
|------5----------5----|-4-(4)--7----------7-7-|
|----5---------------5-|----3------------------|
|-3--------------------|-----------------------|
|----------------------|-----------------------|
|
| E  E E  E  E  E E  E   E  E   E  E  E  E E E
|---20---22-20------20-|-7-----10-13-12-10-8-7-|
|----8----8--8--8-8--8-|----6------6--5--------|
|----5----5--5--5-5--5-|-4------7--------7-5-4-|
|----5----5--5-------5-|----3------3--2--------|
|----3----3--3--3-3--3-|-2------5--------5-3-2-|
|----3-x--3--3--3-3--3-|----1------------------|


  Q=74
 4/4
  Gtr II
   >
   Q
|-17------------------------------------|-----------------------------|
|-12------------------------------------|-----------------------------|
|-17------------------------------------|-----------------------------|
|---------------------------------------|-----------------------------|
|--0------------------------------------|-----------------------------|
|---------------------------------------|-----------------------------|
|
| Gtr I
|  E   E    E    E    E    E    E    E     E   E    E   E  E  E  E  E
|--------------------22-----------------|-20-----------19-------------|
|---------------20--------20------------|-12--12-------12-12----22-20-|
|----------21------------------21-------|-21-------22--22----22-------|
|-----22----------------------------22--|-22-----------22-------22-21-|
|-12-(12)-(12)-(12)-(12)-(12)-(12)-(12)-|-12-(12)-(12)-12-------15-14-|
|---------------------------------------|-----------------------------|
|
|  W                                       W
|---------------------------------------|-----------------------------|
|---------------------------------------|-----------------------------|
|---------------------------------------|-----------------------------|
|---------------------------------------|-----------------------------|
|---------------------------------------|-----------------------------|
|---------------------------------------|-----------------------------|


|------------------------|----------------|
|------------------------|----------------|
|------------------------|----------------|
|------------------------|----------------|
|------------------------|----------------|
|------------------------|----------------|
|
| E  E  E  E  E  E  E  E   E E E E Q  Q
|------------17----------|-3-2-0-2----2---|
|---------15----15-------|-0-0-0-3-1--3---|
|------12----------12----|-0-0-0-0-0--0---|
|---16----------------16-|-2-2-2-0-2--0---|
|-7----------------------|---------3--2---|
|------------------------|----------------|
|
|                          Gtr II
| W                        E E E E Q  Q
|------------------------|----------------|
|------------------------|----------------|
|------------------------|---------5--4---|
|------------------------|-5-5-5-5-7--5---|
|------------------------|-7-7-7-7-0------|
|------------------------|-0-0-0-0----3---|


  Q=74
 4/4
  Gtrs IV, V
  H              Q    Q       Q    Q    Q     Q
|-5-------------12---------|--7---------8-----3---|
|--------------------------|----------------------|
|--------------------------|----------------------|
|--------------------------|----------------------|
|--------------------------|----------------------|
|--------------------------|----------------------|
|
| Gtr I
| E  E   E   E   E  E E  E    E E  E  E E  E  E E
|---------------10---------|--8-------7-----------|
|------------8------8------|--0-0-----0-0----10-8-|
|--------9------------9----|--9---10-10---10------|
|---10------------------10-|-10------10------10-9-|
|-0-(0)-(0)-(0)-(0)--------|--0-------0-------3-2-|
|--------------------------|----------------------|
|
| Gtr II
| W
|-8------------------------|----------------------|
|-5------------------------|----------------------|
|-5------------------------|----------------------|
|-7------------------------|----------------------|
|-0------------------------|----------------------|
|--------------------------|----------------------|


  Q      Q       Q.     E    E  E  E  E  E E  Q
|-0-------------10--------|-15-14-12-10-17---15---|
|-------------------------|-----------------------|
|-------------------------|-----------------------|
|-------------------------|-----------------------|
|-------------------------|-----------------------|
|-------------------------|-----------------------|
|
| E  E   E   E   E  E E E    E  E  E  E  Q    Q
|----------------5--------|--3--2--0--2-------2---|
|------------3------3-----|--0--0--0--3--1----3---|
|--------0------------0---|--0--0--0--0--0----0---|
|----4------------------4-|--2--2--2--0--2----0---|
|-------------------------|--------------3----2---|
|-0-(0)-(0)-(0)-----------|-----------------------|
|
|-------------------------|-----------------------|
|-------------------------|-----------------------|
|-------------------------|-----------------------|
|-------------------------|-----------------------|
|-------------------------|-----------------------|
|-------------------------|-----------------------|


  Q=74
 4/4
  Gtrs IV, V
   H                  H                    H               Q     Q
|--8-----------------12-----------------|--7---------------8-----3----|
|-10-----------------13-----------------|--8--------------10-----5----|
|---------------------------------------|-----------------------------|
|---------------------------------------|-----------------------------|
|---------------------------------------|-----------------------------|
|---------------------------------------|-----------------------------|
|
| Gtr I
|  E   E    E    E    E    E    E    E     E   E    E   E  E  E  E  E
|--------------------22-----------------|-20-----------19-------------|
|---------------20--------20------------|-12--12-------12-12----22-20-|
|----------21------------------21-------|-21-------22--22----22-------|
|-----22----------------------------22--|-22-----------22-------22-21-|
|-12-(12)-(12)-(12)-(12)-(12)-(12)-(12)-|-12-(12)-(12)-12-------15-14-|
|---------------------------------------|-----------------------------|


  H           H             E  E  E  E  Q   Q
|-0----------10----------|-15-14-12-10-17--15---|
|-0-----------8----------|-17-15-13-12-----15---|
|------------------------|-------------17-------|
|------------------------|----------------------|
|------------------------|----------------------|
|------------------------|----------------------|
|
| E  E  E  E  E  E  E  E    E  E  E  E  Q   Q
|------------17----------|--3--2--0--2------2---|
|---------15----15-------|--0--0--0--3--1---3---|
|------12----------12----|--0--0--0--0--0---0---|
|---16----------------16-|--2--2--2--0--2---0---|
|-7----------------------|--------------3---2---|
|------------------------|----------------------|


  Gtrs IV, V
   >
   W
|-18-------------------------|----------------------------|
|----------------------------|----------------------------|
|-19-------------------------|----------------------------|
|----------------------------|----------------------------|
|----------------------------|----------------------------|
|----------------------------|----------------------------|
|
| Gtr IV
|  E  E   E   E   E  E  E  E    E  E   E   E   E  E  E  E
|----------------------------|----------------13----------|
|------------13--------13----|------------13-----13-------|
|--------15------15-------15-|--------15------------15----|
|----15-------------15-------|----15-------------------15-|
|-13-------------------------|-12-------------------------|
|----------------------------|----------------------------|
|
| Gtr I
|  E  E   E   E   E  E  E  E    E  E   E   E   E  E  E  E
|----------------------------|-----------------1----------|
|-------------1---------1----|-------------1------1-------|
|---------3-------3--------3-|---------3-------------3----|
|-----3--------------3-------|-----3--------------------3-|
|--1-(1)-(1)-(1)-------------|--0-(0)-(0)-(0)-------------|
|----------------------------|----------------------------|


|-------------------------|---------------------------|
|-------------------------|---------------------------|
|-------------------------|---------------------------|
|-------------------------|---------------------------|
|-------------------------|---------------------------|
|-------------------------|---------------------------|
|
|  E  E  E  E  E  E  E  E    E  E  E  E  E  E  E  E
|----------12-------------|----------17---------------|
|-------18----18----------|-------20----20----12-15---|
|----19----------19----19-|----19----------19---------|
|-17----------------17----|-20----------------17-16---|
|-------------------------|---------------------------|
|-------------------------|---------------------------|
|
|  E  E  E  E  E  E  E  E    E  E  E  E  E  E  E  E
|-----------0-------------|-----------5---------------|
|--------6-----6----------|--------8-----8-----0--3---|
|-----7-----------7-----7-|-----7-----------7---------|
|--5-----------------5----|--8-----------------5--4---|
|-------------------------|---------------------------|
|-------------------------|---------------------------|


  Gtrs I, IV
  E  E   E   E   E  E  E E   E E  E E  E E  E E
|----------------0---------|----------15--------|
|------------8--12--8------|--------8-12-8------|
|--------9-------------9---|------9---------9---|
|----9-------9------9----9-|---9----9----9----9-|
|-7--7--10------------10-7-|-7-7-10--------10-7-|
|-0-(0)-(0)-(0)-(0)--------|-0------------------|


  E  E  E  E  E  E  E  E   E  E  E  E  E  E  E  E
|------10-12-17-12-10----|------10-12-18-12-10----|
|---10-----5-17--5----10-|---10-----5-11--5----10-|
|-7-----7-----------7----|-7-----7-----------7----|
|----7-----------------7-|----7-----------------7-|
|-5----------------------|-5----------------------|
|------------------------|------------------------|


|-------------------------|-------------------------|
|-------------------------|-------------------------|
|-------------------------|-------------------------|
|-------------------------|-------------------------|
|-------------------------|-------------------------|
|-------------------------|-------------------------|
|
| Gtr I
|  E  E  E  E  E  E  E  E    E  E  E  E  E  E  E  E
|-------------------------|-------------------------|
|----------15-------15----|----------15-------15----|
|-------17----17-------17-|-------17----17-------17-|
|----14----------14-------|----15----------15-------|
|-12----------------------|-12----------------------|
|-------------------------|-------------------------|


|-------------------------|-------------------------|
|-------------------------|-------------------------|
|-------------------------|-------------------------|
|-------------------------|-------------------------|
|-------------------------|-------------------------|
|-------------------------|-------------------------|
|
|  E  E  E  E  E  E  E  E    E  E  E  E  E  E  E  E
|-------------15----------|-------------12----20-19-|
|----------15----15-------|----------18----18-18-18-|
|-------17----------17----|-16-16-19----------19-19-|
|----17----------------17-|----15-------------------|
|-15----------------------|-------------------------|
|-------------------------|-------------------------|


  Gtr IV
  E  E E  E  E E  E  E   E E E  E E E  E E
|------8-10--8---10--8-|-----8-10-8---10-8-|
|----5----3----5--3----|---6----3---6--3---|
|-2----5-----5-------5-|-2---5----5------5-|
|----2---------2-------|---3--------3------|
|-0--------------------|-0-----------------|
|----------------------|-------------------|
|
| Gtr I
| E  E E  E  E E  E  E   E E E  E E E  E E
|----------------------|-------------------|
|---------3-------3----|--------3------3---|
|------5-----5-------5-|-----5----5------5-|
|----2---------2-------|---3--------3------|
|-0--------------------|-0-----------------|
|----------------------|-------------------|
|
|   Gtr II
| E  E E  E  E E  E  E   E E E  E E E  E E
|---12---17-12------12-|---8---13-8------8-|
|---10---10-10-5--5--5-|---6----6-6-6--6-6-|
|----5----5--5-5--5--5-|---5----5-5-5--5-5-|
|----2----2--2-------2-|---3----3-3-3--3-3-|
|----0-x--0--0-0--0--0-|---x-x--x-x------x-|
|----------------------|-0-1----1-1-1--1-1-|


  E  E E  E  E  E E  E   E  E   E  E  E  E E E
|------8-10-15-10-8----|-7------------0----8-7-|
|----8----3--8--3----8-|----6------6-----6-6-6-|
|-5----5----------5----|-4-(4)--7----------7-7-|
|----5---------------5-|----3------------------|
|-3--------------------|-----------------------|
|----------------------|-----------------------|
|
| E  E E  E  E  E E  E   E  E   E  E  E  E E E
|------------3---------|--------------0----8-7-|
|---------3-----3------|-----------6-----6-6-6-|
|------5----------5----|-4-(4)--7----------7-7-|
|----5---------------5-|----3------------------|
|-3--------------------|-----------------------|
|----------------------|-----------------------|
|
| E  E E  E  E  E E  E   E  E   E  E  E  E E E
|---20---22-20------20-|-7-----10-13-12-10-8-7-|
|----8----8--8--8-8--8-|----6------6--5--------|
|----5----5--5--5-5--5-|-4------7--------7-5-4-|
|----5----5--5-------5-|----3------3--2--------|
|----3----3--3--3-3--3-|-2------5--------5-3-2-|
|----3-x--3--3--3-3--3-|----1------------------|


  Gtr IV
   E  E  E  E  E  E  E  E    E  E  E  E  E  E  E  E
|--------8-10--8----10--8-|--------8-10--8----10--8-|
|-----5-----3-----5--3----|-----6-----3-----6--3----|
|--2-----5-----5--------5-|--2-----5-----5--------5-|
|-----2-----------2-------|-----3-----------3-------|
|--0----------------------|--0----------------------|
|-------------------------|-------------------------|
|
| Gtr I
|  E  E  E  E  E  E  E  E    E  E  E  E  E  E  E  E
|-------------------------|-------------------------|
|----------15-------15----|----------15-------15----|
|-------17----17-------17-|-------17----17-------17-|
|----14----------14-------|----15----------15-------|
|-12----------------------|-12----------------------|
|-------------------------|-------------------------|
|
|  E  E  E  E  E  E  E  E    E  E  E  E  E  E  E  E
|----12----17-12-------12-|-----8----13--8--------8-|
|----10----10-10--5--5--5-|-----6-----6--6--6--6--6-|
|-----5-----5--5--5--5--5-|-----5-----5--5--5--5--5-|
|-----2-----2--2--------2-|-----3-----3--3--3--3--3-|
|-----0--x--0--0--0--0--0-|-----x--x--x--x--------x-|
|-------------------------|--0--1-----1--1--1--1--1-|


   E  E  E  E  E  E  E  E    E  E   E  E  E  E  E  E
|--------8-10-15-10--8----|--7------------0-----8--7-|
|-----8-----3--8--3-----8-|-----6------6-----6--6--6-|
|--5-----5-----------5----|--4-(4)--7-----------7--7-|
|-----5-----------------5-|-----3--------------------|
|--3----------------------|--------------------------|
|-------------------------|--------------------------|
|
|  E  E  E  E  E  E  E  E    E  E   E  E  E  E  E  E
|-------------15----------|--------------12----20-19-|
|----------15----15-------|-----------18----18-18-18-|
|-------17----------17----|-16-16--19----------19-19-|
|----17----------------17-|----15--------------------|
|-15----------------------|--------------------------|
|-------------------------|--------------------------|
|
|  E  E  E  E  E  E  E  E    E  E   E  E  E  E  E  E
|----20----22-20-------20-|--7-----10-13-12-10--8--7-|
|-----8-----8--8--8--8--8-|-----6------6--5----------|
|-----5-----5--5--5--5--5-|--4------7--------7--5--4-|
|-----5-----5--5--------5-|-----3------3--2----------|
|-----3-----3--3--3--3--3-|--2------5--------5--3--2-|
|-----3--x--3--3--3--3--3-|-----1--------------------|


  Q=148
  Gtr III
  S S S S S S S S S S S S S S S S S S S S S S S S S S S S S S S S
|-----------------------------------------------------------------|
|-----------------------------------------------------------------|
|-----------------------------------------------------------------|
|-----------------------------------------------------------------|
|-----------------7-7-7-7---------5-5-5-5---------7-7-7-7---------|
|-5-5-5-5-8-8-8-8---------8-8-8-8---------7-7-7-7---------8-8-8-8-|


   S  S  S  S S S S S S S S S S S S S S S S S S S S S  S  S  S  S  S  S  S  S
|-----------------------------------------------------------------------------|
|-----------------------------------------------------------------------------|
|-----------------------------------------------------------------------------|
|-10-10-10-10-----------------9-9-9-9-----------------------------------------|
|-------------7-7-7-7-----------------7-7-7-7---------10-10-10-10-10-10-10-10-|
|---------------------8-8-8-8-----------------8-8-8-8--8--8--8--8--7--7--7--7-|


  Gtr III
  S S S S S S S S S S S S S S S S S S S S S S S S S S S S S S S S
|-----------------------------------------------------------------|
|-----------------------------------------------------------------|
|-----------------------------------------------------------------|
|---------------------------------7-7-7-7---------5-5-5-5-4-4-4-4-|
|-------------------------5-5-5-5---------5-5-5-5-----------------|
|-0-0-0-0-2-2-2-2-3-3-3-3-----------------------------------------|


  S S S S S S S S S S S S S S S S S S S S S S S S S S S S S S S S
|-----------------------------------------------------------------|
|-------------------------------------------------3-3-3-3-3-3-3-3-|
|-------------------------------------------------0-0-0-0-0-0-0-0-|
|-5-5-5-5-4-4-4-4-2-2-2-2-4-4-4-4-2-2-2-2-2-2-2-2-0-0-0-0-0-0-0-0-|
|-7-7-7-7-5-5-5-5-3-3-3-3-5-5-5-5-3-3-3-3-3-3-3-3-2-2-2-2-2-2-2-2-|
|-----------------------------------------------------------------|


  Gtr III
  S S S S S S S S S S S S S S S S S S S S S S S S S S S S S S S S
|-----------------------------------------------------------------|
|-----------------------------------------------------------------|
|-----------------------------------------------------------------|
|-----------------5-5-5-5---------4-4-4-4---------5-5-5-5---------|
|-3-3-3-3-7-7-7-7-7-7-7-7-7-7-7-7-5-5-5-5-5-5-5-5-7-7-7-7-7-7-7-7-|
|-5-5-5-5-8-8-8-8---------8-8-8-8---------7-7-7-7---------8-8-8-8-|


   S  S  S  S S S S S S S S S S S S S S S S S S S S S  S  S  S  S  S  S  S  S
|-----------------------------------------------------------------------------|
|-----------------------------------------------------------------------------|
|--9--9--9--9-----------------7-7-7-7-----------------------------------------|
|-10-10-10-10-5-5-5-5---------9-9-9-9-5-5-5-5---------12-12-12-12--9--9--9--9-|
|-------------7-7-7-7-7-7-7-7---------7-7-7-7-7-7-7-7-10-10-10-10-10-10-10-10-|
|---------------------8-8-8-8-----------------8-8-8-8--8--8--8--8--7--7--7--7-|


  Gtr III
  S S S S S S S S S S S S S S S S S S S S S S S S S S S S S S S S
|-----------------------------------------------------------------|
|-----------------------------------------------------------------|
|---------------------------------9-9-9-9---------4-4-4-4-2-2-2-2-|
|-------------------------7-7-7-7-7-7-7-7-7-7-7-7-5-5-5-5-4-4-4-4-|
|-2-2-2-2-0-0-0-0-5-5-5-5-5-5-5-5---------5-5-5-5-----------------|
|-0-0-0-0-2-2-2-2-3-3-3-3-----------------------------------------|


  S S S S S S S S S S S S S S S S S S S S S S S S S S S S S S S S
|-----------------------------------------------------------------|
|-------------------------------------------------3-3-3-3-3-3-3-3-|
|-9-9-9-9-7-7-7-7-5-5-5-5-7-7-7-7-5-5-5-5-5-5-5-5-0-0-0-0-0-0-0-0-|
|-5-5-5-5-4-4-4-4-2-2-2-2-4-4-4-4-2-2-2-2-2-2-2-2-0-0-0-0-0-0-0-0-|
|-7-7-7-7-5-5-5-5-3-3-3-3-5-5-5-5-3-3-3-3-3-3-3-3-2-2-2-2-2-2-2-2-|
|-----------------------------------------------------------------|


  Gtr III
  S S S S S S S S S S S S S S S S S S S S S S S S S S S S S S S S
|-----------------------------------------------------------------|
|-----------------------------------------------------------------|
|-----------------------------------------------------------------|
|-----------------5-5-5-5---------4-4-4-4---------5-5-5-5---------|
|-3-3-3-3-7-7-7-7-7-7-7-7-7-7-7-7-5-5-5-5-5-5-5-5-7-7-7-7-7-7-7-7-|
|-5-5-5-5-8-8-8-8---------8-8-8-8---------7-7-7-7---------8-8-8-8-|


   S  S  S  S S S S S S S S S S S S S S S S S S S S S  S  S  S  S  S  S  S  S
|-----------------------------------------------------------------------------|
|-----------------------------------------------------------------------------|
|--9--9--9--9-----------------7-7-7-7-----------------------------------------|
|-10-10-10-10-5-5-5-5---------9-9-9-9-5-5-5-5---------12-12-12-12--9--9--9--9-|
|-------------7-7-7-7-7-7-7-7---------7-7-7-7-7-7-7-7-10-10-10-10-10-10-10-10-|
|---------------------8-8-8-8-----------------8-8-8-8--8--8--8--8--7--7--7--7-|


  Gtr III
  S S S S S S S S S S S S S S S S S S S S S S S S S S S S S S S S
|-----------------------------------------------------------------|
|-----------------------------------------------------------------|
|---------------------------------9-9-9-9---------4-4-4-4-2-2-2-2-|
|-------------------------7-7-7-7-7-7-7-7-7-7-7-7-5-5-5-5-4-4-4-4-|
|-2-2-2-2-0-0-0-0-5-5-5-5-5-5-5-5---------5-5-5-5-----------------|
|-0-0-0-0-2-2-2-2-3-3-3-3-----------------------------------------|


  S S S S S S S S S S S S S S S S S S S S S S S S S S S S S S S S
|-----------------------------------------------------------------|
|-------------------------------------------------3-3-3-3-3-3-3-3-|
|-9-9-9-9-7-7-7-7-5-5-5-5-7-7-7-7-5-5-5-5-5-5-5-5-0-0-0-0-0-0-0-0-|
|-5-5-5-5-4-4-4-4-2-2-2-2-4-4-4-4-2-2-2-2-2-2-2-2-0-0-0-0-0-0-0-0-|
|-7-7-7-7-5-5-5-5-3-3-3-3-5-5-5-5-3-3-3-3-3-3-3-3-2-2-2-2-2-2-2-2-|
|-----------------------------------------------------------------|


  Gtr II
   W                                +W
|-25-------------------------------(25)-------------------------------|
|-23-------------------------------(23)-------------------------------|
|-22-------------------------------(22)-------------------------------|
|---------------------------------------------------------------------|
|---------------------------------------------------------------------|
|---------------------------------------------------------------------|
|
| Gtr III
|  S S S S S S S S S S S S S S S S   S  S S S S S S S S S S S S S S S
|---------------------------------------------------------------------|
|--1-1-1-1-1-1-1-1-1-1-1-1-1-1-1-1---1--1-1-1-1-1-1-1-1-1-1-1-1-1-1-1-|
|--3-3-3-3-3-3-3-3-3-3-3-3-3-3-3-3---3--3-3-3-3-3-3-3-3-3-3-3-3-3-3-3-|
|--3-3-3-3-3-3-3-3-3-3-3-3-3-3-3-3---3--3-3-3-3-3-3-3-3-3-3-3-3-3-3-3-|
|--1-1-1-1-1-1-1-1-1-1-1-1-1-1-1-1---1--1-1-1-1-1-1-1-1-1-1-1-1-1-1-1-|
|---------------------------------------------------------------------|


   W                                +W
|-25-------------------------------(25)-------------------------------|
|-25-------------------------------(25)-------------------------------|
|-27-------------------------------(27)-------------------------------|
|---------------------------------------------------------------------|
|---------------------------------------------------------------------|
|---------------------------------------------------------------------|
|
|  S S S S S S S S S S S S S S S S   S  S S S S S S S S S S S S S S S
|--1-1-1-1-1-1-1-1-1-1-1-1-1-1-1-1---1--1-1-1-1-1-1-1-1-1-1-1-1-1-1-1-|
|--1-1-1-1-1-1-1-1-1-1-1-1-1-1-1-1---1--1-1-1-1-1-1-1-1-1-1-1-1-1-1-1-|
|--3-3-3-3-3-3-3-3-3-3-3-3-3-3-3-3---3--3-3-3-3-3-3-3-3-3-3-3-3-3-3-3-|
|--3-3-3-3-3-3-3-3-3-3-3-3-3-3-3-3---3--3-3-3-3-3-3-3-3-3-3-3-3-3-3-3-|
|--0-0-0-0-0-0-0-0-0-0-0-0-0-0-0-0---0--0-0-0-0-0-0-0-0-0-0-0-0-0-0-0-|
|---------------------------------------------------------------------|


   W                                +W
|-27-------------------------------(27)-------------------------------|
|-27-------------------------------(27)-------------------------------|
|-27-------------------------------(27)-------------------------------|
|---------------------------------------------------------------------|
|---------------------------------------------------------------------|
|---------------------------------------------------------------------|
|
| Gtr III
|  S S S S S S S S S S S S S S S S   S  S S S S S S S S S S S S S S S
|---------------------------------------------------------------------|
|---------------------------------------------------------------------|
|--3-3-3-3-3-3-3-3-3-3-3-3-3-3-3-3---3--3-3-3-3-3-3-3-3-3-3-3-3-3-3-3-|
|--3-3-3-3-3-3-3-3-3-3-3-3-3-3-3-3---3--3-3-3-3-3-3-3-3-3-3-3-3-3-3-3-|
|--5-5-5-5-5-5-5-5-5-5-5-5-5-5-5-5---5--5-5-5-5-5-5-5-5-5-5-5-5-5-5-5-|
|--3-3-3-3-3-3-3-3-3-3-3-3-3-3-3-3---3--3-3-3-3-3-3-3-5-5-5-5-5-5-5-5-|


   W                                +W
|-25-------------------------------(25)-------------------------------|
|-27-------------------------------(27)-------------------------------|
|-27-------------------------------(27)-------------------------------|
|---------------------------------------------------------------------|
|---------------------------------------------------------------------|
|---------------------------------------------------------------------|
|
|  S S S S S S S S S S S S S S S S   S  S S S S S S S S S S S S S S S
|---------------------------------------------------------------------|
|---------------------------------------------------------------------|
|--3-3-3-3-3-3-3-3-3-3-3-3-3-3-3-3---3--3-3-3-3-3-3-3-3-3-3-3-3-3-3-3-|
|--3-3-3-3-3-3-3-3-3-3-3-3-3-3-3-3---3--3-3-3-3-3-3-3-3-3-3-3-3-3-3-3-|
|--5-5-5-5-5-5-5-5-5-5-5-5-5-5-5-5---5--5-5-5-5-5-5-5-5-5-5-5-5-5-5-5-|
|--6-6-6-6-6-6-6-6-6-6-6-6-6-6-6-6---6--6-6-6-6-6-6-6-6-6-6-6-6-6-6-6-|


   W                                   W
|-24------------------------------------------------------------------|
|-24---------------------------------(24)-----------------------------|
|-24---------------------------------(24)-----------------------------|
|-------------------------------------26------------------------------|
|---------------------------------------------------------------------|
|---------------------------------------------------------------------|
|
| Gtr III
|  S S S S S S S S S S S S S S S S S   S  S S S S S S S S S S S S S S
|---------------------------------------------------------------------|
|---------------------------------------------------------------------|
|---------------------------------------------------------------------|
|--5-5-5-5-5-5-5-5-5-5-5-5-5-5-5-5-2---2--2-2-2-2-2-2-2-2-2-2-2-2-2-2-|
|--2-2-2-2-2-2-2-2-2-2-2-2-2-2-2-2-2---2--2-2-2-2-2-2-2-2-2-2-2-2-2-2-|
|--0-0-0-0-0-0-0-0-0-0-0-0-0-0-0-0-0---0--0-0-0-0-0-0-0-0-0-0-0-0-0-0-|


   W                                                W
|-27-----------------------------------------------24--------------------------------|
|-24----------------------------------------------(24)-------------------------------|
|-24----------------------------------------------(24)-------------------------------|
|--------------------------------------------------26--------------------------------|
|------------------------------------------------------------------------------------|
|------------------------------------------------------------------------------------|
|
|  S  S  S  S  S  S  S  S  S  S  S  S  S  S  S  S   S  S S S S S S S S S S S S S S S
|------------------------------------------------------------------------------------|
|------------------------------------------------------------------------------------|
|------------------------------------------------------------------------------------|
|--9--9--9--9--9--9--9--9--9--9--9--9--9--9--9--9---5--5-5-5-5-5-5-5-5-5-5-5-5-5-5-5-|
|-10-10-10-10-10-10-10-10-10-10-10-10-10-10-10-10---7--7-7-7-7-7-7-7-7-7-7-7-7-7-7-7-|
|--0--0--0--0--0--0--0--0--0--0--0--0--0--0--0--0---0--0-0-0-0-0-0-0-0-0-0-0-0-0-0-0-|


   W                                +W
|-29-------------------------------(29)-------------------------------|
|-29-------------------------------(29)-------------------------------|
|-19-------------------------------(19)-------------------------------|
|---------------------------------------------------------------------|
|---------------------------------------------------------------------|
|---------------------------------------------------------------------|
|
| Gtr III
|  S S S S S S S S S S S S S S S S   S  S S S S S S S S S S S S S S S
|--5-5-5-5-5-5-5-5-5-5-5-5-5-5-5-5---5--5-5-5-5-5-5-5-5-5-5-5-5-5-5-5-|
|--5-5-5-5-5-5-5-5-5-5-5-5-5-5-5-5---5--5-5-5-5-5-5-5-5-5-5-5-5-5-5-5-|
|--7-7-7-7-7-7-7-7-7-7-7-7-7-7-7-7---7--7-7-7-7-7-7-7-7-7-7-7-7-7-7-7-|
|--7-7-7-7-7-7-7-7-7-7-7-7-7-7-7-7---7--7-7-7-7-7-7-7-7-7-7-7-7-7-7-7-|
|--5-5-5-5-5-5-5-5-5-5-5-5-5-5-5-5---5--5-5-5-5-5-5-5-5-5-5-5-5-5-5-5-|
|--5-5-5-5-5-5-5-5-5-5-5-5-5-5-5-5---5--5-5-5-5-5-5-5-5-5-5-5-5-5-5-5-|


   W                                +W
|-18-------------------------------(18)-------------------------------|
|-29-------------------------------(29)-------------------------------|
|-19-------------------------------(19)-------------------------------|
|---------------------------------------------------------------------|
|---------------------------------------------------------------------|
|---------------------------------------------------------------------|
|
|  S S S S S S S S S S S S S S S S   S  S S S S S S S S S S S S S S S
|--6-6-6-6-6-6-6-6-6-6-6-6-6-6-6-6---6--6-6-6-6-6-6-6-6-6-6-6-6-6-6-6-|
|--5-5-5-5-5-5-5-5-5-5-5-5-5-5-5-5---5--5-5-5-5-5-5-5-5-5-5-5-5-5-5-5-|
|--7-7-7-7-7-7-7-7-7-7-7-7-7-7-7-7---7--7-7-7-7-7-7-7-7-7-7-7-7-7-7-7-|
|--7-7-7-7-7-7-7-7-7-7-7-7-7-7-7-7---7--7-7-7-7-7-7-7-7-7-7-7-7-7-7-7-|
|--5-5-5-5-5-5-5-5-5-5-5-5-5-5-5-5---5--5-5-5-5-5-5-5-5-5-5-5-5-5-5-5-|
|--5-5-5-5-5-5-5-5-5-5-5-5-5-5-5-5---5--5-5-5-5-5-5-5-5-5-5-5-5-5-5-5-|


  W                                  W
|-5-----------------------------------------------------------------|
|-5---------------------------------(5)-----------------------------|
|-5---------------------------------(5)-----------------------------|
|------------------------------------2------------------------------|
|-------------------------------------------------------------------|
|-------------------------------------------------------------------|
|
| Gtr III
| S S S S S S S S S S S S S S S S S  S  S S S S S S S S S S S S S S
|-------------------------------------------------------------------|
|---------------------------3-3-3-3---------------------------------|
|-2-2-2-2-2-4-4-4-4-5-5-5-5-2-2-2-2--5--5-5-5-4-4-4-4-5-5-5-4-4-4-4-|
|-2-2-2-2-2-2-2-2-2-2-2-2-2-2-2-2-2--2--2-2-2-2-2-2-2-2-2-2-2-2-2-2-|
|-0-0-0-0-0-0-0-0-0-0-0-0-0-0-0-0-0--0--0-0-0-0-0-0-0-0-0-0-0-0-0-0-|
|-------------------------------------------------------------------|


  W                                W
|-1--------------------------------8--------------------------------|
|-1-------------------------------(1)-------------------------------|
|-2-------------------------------(2)-------------------------------|
|----------------------------------5--------------------------------|
|-------------------------------------------------------------------|
|-------------------------------------------------------------------|
|
| S S S S S S S S S S S S S S S S  S  S S S S S S S S S S S S S S S
|-------------------------------------------------------------------|
|-------------------------------------------------------------------|
|-------------------------------------------------------------------|
|-3-3-3-3-3-3-3-3-5-5-5-5-3-3-3-3--5--5-5-5-3-3-3-3-5-5-5-5-3-3-3-3-|
|-3-3-3-3-3-3-3-3-3-3-3-3-3-3-3-3--3--3-3-3-3-3-3-3-3-3-3-3-3-3-3-3-|
|-1-1-1-1-1-1-1-1-1-1-1-1-1-1-1-1--1--1-1-1-1-1-1-1-1-1-1-1-1-1-1-1-|


  Gtr II
   W                                +W
|-15-------------------------------(15)-------------------------------|
|-15-------------------------------(15)-------------------------------|
|-17-------------------------------(17)-------------------------------|
|---------------------------------------------------------------------|
|---------------------------------------------------------------------|
|---------------------------------------------------------------------|
|
| Gtr III
|  S S S S S S S S S S S S S S S S   S  S S S S S S S S S S S S S S S
|--3-3-3-3-3-3-3-3-3-3-3-3-3-3-3-3---3--3-3-3-3-3-3-3-3-3-3-3-3-3-3-3-|
|--3-3-3-3-3-3-3-3-3-3-3-3-3-3-3-3---3--3-3-3-3-3-3-3-3-3-3-3-3-3-3-3-|
|--5-5-5-5-5-5-5-5-5-5-5-5-5-5-5-5---5--5-5-5-5-5-5-5-5-5-5-5-5-5-5-5-|
|--5-5-5-5-5-5-5-5-5-5-5-5-5-5-5-5---5--5-5-5-5-5-5-5-5-5-5-5-5-5-5-5-|
|--3-3-3-3-3-3-3-3-3-3-3-3-3-3-3-3---3--3-3-3-3-3-3-3-3-3-3-3-3-3-3-3-|
|--3-3-3-3-3-3-3-3-3-3-3-3-3-3-3-3---3--3-3-3-3-3-3-3-3-3-3-3-3-3-3-3-|


  Gtrs I, II, IV, V
   Q        Q        Q           Q        Q           Q           Q           Q
|-19-------13----------------------------------------------------20----------19----------|
|-------------------15----------18-------17----------21----------------------------------|
|----------------------------------------------------------------------------------------|
|----------------------------------------------------------------------------------------|
|----------------------------------------------------------------------------------------|
|----------------------------------------------------------------------------------------|
|
|  S S S S  S S S S  S  S  S  S  S S S S  S  S  S  S  S  S  S  S  S  S  S  S  S  S  S  S
|----------------------------------------------------------------------------------------|
|----------------------------------------------------------------------------------------|
|--4-4-4-4-----------------------4-4-4-4--9--9--9--9-10-10-10-10-------------------------|
|--3-3-3-3--3-3-3-3--6--6--6--6--6-6-6-6-10-10-10-10-12-12-12-12-10-10-10-10--9--9--9--9-|
|--2-2-2-2--5-5-5-5--8--8--8--8--8-8-8-8--7--7--7--7--8--8--8--8-11-11-11-11-11-11-11-11-|
|-----------1-1-1-1-10-10-10-10----------------------------------12-12-12-12-10-10-10-10-|


  Gtr II
  W                                  W
|-5-----------------------------------------------------------------|
|-5---------------------------------(5)-----------------------------|
|-5---------------------------------(5)-----------------------------|
|------------------------------------2------------------------------|
|-------------------------------------------------------------------|
|-------------------------------------------------------------------|
|
| Gtr III
| S S S S S S S S S S S S S S S S S  S  S S S S S S S S S S S S S S
|-------------------------------------------------------------------|
|---------------------------3-3-3-3---------------------------------|
|-2-2-2-2-2-4-4-4-4-5-5-5-5-2-2-2-2--5--5-5-5-4-4-4-4-5-5-5-4-4-4-4-|
|-2-2-2-2-2-2-2-2-2-2-2-2-2-2-2-2-2--2--2-2-2-2-2-2-2-2-2-2-2-2-2-2-|
|-0-0-0-0-0-0-0-0-0-0-0-0-0-0-0-0-0--0--0-0-0-0-0-0-0-0-0-0-0-0-0-0-|
|-------------------------------------------------------------------|


  W                                W
|-1--------------------------------8--------------------------------|
|-1-------------------------------(1)-------------------------------|
|-2-------------------------------(2)-------------------------------|
|----------------------------------5--------------------------------|
|-------------------------------------------------------------------|
|-------------------------------------------------------------------|
|
| S S S S S S S S S S S S S S S S  S  S S S S S S S S S S S S S S S
|-------------------------------------------------------------------|
|-------------------------------------------------------------------|
|-------------------------------------------------------------------|
|-3-3-3-3-3-3-3-3-5-5-5-5-3-3-3-3--5--5-5-5-3-3-3-3-5-5-5-5-3-3-3-3-|
|-3-3-3-3-3-3-3-3-3-3-3-3-3-3-3-3--3--3-3-3-3-3-3-3-3-3-3-3-3-3-3-3-|
|-1-1-1-1-1-1-1-1-1-1-1-1-1-1-1-1--1--1-1-1-1-1-1-1-1-1-1-1-1-1-1-1-|


  Gtr II
   W                                +W
|-15-------------------------------(15)-------------------------------|
|-15-------------------------------(15)-------------------------------|
|-17-------------------------------(17)-------------------------------|
|---------------------------------------------------------------------|
|---------------------------------------------------------------------|
|---------------------------------------------------------------------|
|
| Gtr III
|  S S S S S S S S S S S S S S S S   S  S S S S S S S S S S S S S S S
|--3-3-3-3-3-3-3-3-3-3-3-3-3-3-3-3---3--3-3-3-3-3-3-3-3-3-3-3-3-3-3-3-|
|--3-3-3-3-3-3-3-3-3-3-3-3-3-3-3-3---3--3-3-3-3-3-3-3-3-3-3-3-3-3-3-3-|
|--5-5-5-5-5-5-5-5-5-5-5-5-5-5-5-5---5--5-5-5-5-5-5-5-5-5-5-5-5-5-5-5-|
|--5-5-5-5-5-5-5-5-5-5-5-5-5-5-5-5---5--5-5-5-5-5-5-5-5-5-5-5-5-5-5-5-|
|--3-3-3-3-3-3-3-3-3-3-3-3-3-3-3-3---3--3-3-3-3-3-3-3-3-3-3-3-3-3-3-3-|
|--3-3-3-3-3-3-3-3-3-3-3-3-3-3-3-3---3--3-3-3-3-3-3-3-3-3-3-3-3-3-3-3-|


  Gtrs I, II, IV, V
   Q        Q        Q           Q        Q           Q           Q           Q
|-19-------13----------------------------------------------------20----------19----------|
|-------------------15----------18-------17----------21----------------------------------|
|----------------------------------------------------------------------------------------|
|----------------------------------------------------------------------------------------|
|----------------------------------------------------------------------------------------|
|----------------------------------------------------------------------------------------|
|
|  S S S S  S S S S  S  S  S  S  S S S S  S  S  S  S  S  S  S  S  S  S  S  S  S  S  S  S
|----------------------------------------------------------------------------------------|
|----------------------------------------------------------------------------------------|
|--4-4-4-4-----------------------4-4-4-4--9--9--9--9-10-10-10-10-------------------------|
|--3-3-3-3--3-3-3-3--6--6--6--6--6-6-6-6-10-10-10-10-12-12-12-12-10-10-10-10--9--9--9--9-|
|--2-2-2-2--5-5-5-5--8--8--8--8--8-8-8-8--7--7--7--7--8--8--8--8-11-11-11-11-11-11-11-11-|
|-----------1-1-1-1-10-10-10-10----------------------------------12-12-12-12-10-10-10-10-|


  W        W
|---------------|
|---------------|
|---------------|
|---------------|
|---------------|
|---------------|


  Gtrs I, II, IV, V
   Q        Q        Q           Q        Q           Q           Q           Q
|-19-------13----------------------------------------------------20----------19----------|
|-------------------15----------18-------17----------21----------------------------------|
|----------------------------------------------------------------------------------------|
|----------------------------------------------------------------------------------------|
|----------------------------------------------------------------------------------------|
|----------------------------------------------------------------------------------------|
|
| Gtr III
|  S S S S  S S S S  S  S  S  S  S S S S  S  S  S  S  S  S  S  S  S  S  S  S  S  S  S  S
|----------------------------------------------------------------------------------------|
|----------------------------------------------------------------------------------------|
|--4-4-4-4-----------------------4-4-4-4--9--9--9--9-10-10-10-10-------------------------|
|--3-3-3-3--3-3-3-3--6--6--6--6--6-6-6-6-10-10-10-10-12-12-12-12-10-10-10-10--9--9--9--9-|
|--2-2-2-2--5-5-5-5--8--8--8--8--8-8-8-8--7--7--7--7--8--8--8--8-11-11-11-11-11-11-11-11-|
|-----------1-1-1-1-10-10-10-10----------------------------------12-12-12-12-10-10-10-10-|


  Q=74
  Gtr II
   W                        +W
|-20---------------------|-(20)----|
|-17---------------------|-(17)----|
|-17---------------------|-(17)----|
|-14---------------------|-(14)----|
|------------------------|---------|
|------------------------|---------|
|
| Gtr IV
|  Q    Q     Q     Q        H
|-------8----12-----8----|-^17-----|
|--5----------5----------|-^-5-----|
|-------5----------10----|-^-5-----|
|--2----------2----12----|-^-2-----|
|------------------11----|-^-0-----|
|------------------------|---------|
|
| Gtr III
|  W                        +W
|--5---------------------|--(5)----|
|--5---------------------|--(5)----|
|--5---------------------|--(5)----|
|--2---------------------|--(2)----|
|--0---------------------|--(0)----|
|------------------------|---------|



Duration Legend
---------------
W - whole; H - half; Q - quarter; E - 8th; S - 16th; T - 32nd; X - 64th; a - acciaccatura
+ - note tied to previous; . - note dotted; .. - note double dotted
Uncapitalized letters represent notes that are staccato (1/2 duration)
Irregular groupings are notated above the duration line
Duration letters will always appear directly above the note/fret number it represents the
duration for.  Duration letters with no fret number below them represent rests.  Multi-
bar rests are notated in the form Wxn, where n is the number of bars to rest for.  Low
melody durations appear below the staff

Tablature Legend
----------------
 h   - hammer-on
 p   - pull-off
 b   - bend
 pb  - pre-bend
 r   - bend release (if no number after the r, then release immediately)
 /\  - slide into or out of (from/to "nowhere")
 s   - legato slide
 S   - shift slide
<n> - natural harmonic
[n]  - artificial harmonic
n(n) - tapped harmonic
 ~   - vibrato
 tr  - trill
 T   - tap
 TP  - trem. picking
 PM  - palm muting
\n/  - tremolo bar dip; n = amount to dip
 \n  - tremolo bar down
 n/  - tremolo bar up
/n\  - tremolo bar inverted dip
 =   - hold bend; also acts as connecting device for hammers/pulls
 <> - volume swell (louder/softer)
 x   - on rhythm slash represents muted slash
 o   - on rhythm slash represents single note slash

Misc Legend
-----------
 |  - bar
||  - double bar
||o - repeat start
o|| - repeat end
*|  - double bar (ending)
 :  - bar (freetime)
 $  - Segno
 &  - Coda
Tempo markers - <E/E./Q/Q./H/H.> = BPM(8/16=s8/s16), where s8 = swing 8ths, s16 = swing 16ths


** Generated using Power Tab Editor by Brad Larsen: The Official Power Tab Web Site