#----------------------------------PLEASE NOTE---------------------------------#
#This file is the author's own work and represents their interpretation of the #
#song. You may only use this file for private study, scholarship, or research. #
#------------------------------------------------------------------------------#

HANDS ACROSS THE VOID PART I
As recorded by Blood vacuum
(From the 2006 Album HANDS ACROSS THE VOID)


Words by Matthew Calestino Music by Blood Vacuum
Arranged by Matthew Calestino


Gtr I (D G C F A D) - 'Rhythm'
Gtr II (D G C F A D) - 'flute'
Gtr III (C G C F A D) - 'strings'
Gtr IV (C G C F A D) - 'pizzicato'
Gtr V (D G C F A D) - 'harpsichord'
Gtr VI (C G C F A D) - 'piano'

  Q=92
  Gtr IV
  Q  E Q  E E E   E E E E E S S  E  E   Q  E Q  E E E   E E E E E  S S  E E
|------2--------|---------------------|------2--------|---------------------|
|----2--------9-|-7-----5---7-9-10-12-|----2--------9-|-7-----5---10-9-10-9-|
|------2----6-4-|---7-6-----6-4--2--1-|------2----6-4-|---7-6------6-4--6-7-|
|-4--4----7-2---|---4-7-6-9-7-6--4--2-|-4--4----7-2---|---4-7-6-9--7-6--7-9-|
|---------4-----|-5-------7-----------|---------4-----|-5-------7-----------|
|-4----4----2---|---------2-----------|-4----4----2---|---------2-----------|


  Q=92
 4/4
  Gtr I
  Q    E Q  E E E   E E E E E S S E E   Q  E Q  E E E   E E E E E S S E E
|--------2--------|-------------------|------2--------|--------------------|
|--------2------9-|-7-----5-----------|------2------9-|-7-----5------------|
|------2-2----6-4-|---7-6-----6-4-2-1-|----2-2----6-4-|---7-6-----6-4-6-7--|
|-4----4-4--7-2---|---4-7-6-9-7-6-4-2-|-4--4-4--7-2---|---4-7-6-9-7-6-7-9--|
|-4----4-4--4-----|-5-------7---------|-4--4-4--4-----|-5-------7----------|
|-2----2-2--------|---------0---------|-2--2-2--------|---------0----------|


  Q=92
 4/4
  Gtr II
                                            ~
    |-3-|
  E S S S S S S S S S S S S S S S   S S S S E E E E    E E
|-9-5h9-5---9-7p5-7-5-----5-------|------------------------|
|---------7-----------9-7---9-7-5-|-9-7-5-------------10-9-|
|---------------------------------|-------7-6-7-6-9--------|
|---------------------------------|------------------------|
|---------------------------------|------------------------|
|---------------------------------|------------------------|
|
| Gtr I
| Q       E   Q       E   E   E     E   E   E E E S S  E E
|-------------2-------------------|------------------------|
|-------------2---------------9---|-7---------5------------|
|---------2---2-----------6---4---|-----7---6-----6-4--2-1-|
|-4-------4---4-------7---2-------|-----4---7-6-9-7-6--4-2-|
|-4-------4---4-------4-----------|-5-----------7----------|
|-2-------2---2-------------------|-------------0----------|


                                             \0.25/
                                ~~~~~                   ~~
   S   S    S  S  S S S   S S   Q..          S       S  Q    S  S  S  S  S  E    E.
|---------------------------9-/14---------|-14------17-16------19----------21---21b22-----|
|---------------------7-/10---------------|-----------------------17----------------------|
|-11-(11)-(11)------6---------------------|-----------------16----------18----------------|
|--------------4-/7-----------------------|--------------------------18-------------------|
|-----------4-----------------------------|-----------------------------------------------|
|--2h==5----------------------------------|-----------------------------------------------|
|
|  Q              E   Q             E E E    E          E E  E     E     S  S E       E
|-----------------2---2-------------------|-----------------------------------------------|
|-----------------2---2-----------------9-|--7---------------5----------------------------|
|-----------------2---2---------------6-4-|-------------7-6--------------6--4-6-------7---|
|--4--------------4---4-------------7-2---|-------------4-7--6-----9-----7--6-7-------9---|
|--4--------------4---4-------------4-----|--5---------------------7----------------------|
|--2--------------2---2-------------------|------------------------0----------------------|


  Gtr II
   ~~
   W
|-21-------------|-------------------|---------------|-------------------|
|----------------|-------------------|---------------|-------------------|
|----------------|-------------------|---------------|-------------------|
|----------------|-------------------|---------------|-------------------|
|----------------|-------------------|---------------|-------------------|
|----------------|-------------------|---------------|-------------------|
|
| Gtr I
|  Q  E Q  E E E   E E E E E S S E E   Q  E Q  E E E   E E E E E S S E E
|-------2--------|-------------------|------2--------|-------------------|
|-------2------9-|-7-----5-----------|------2------9-|-7-----5-----------|
|-----2-2----6-4-|---7-6-----6-4-2-1-|----2-2----6-4-|---7-6-----6-4-6-7-|
|--4--4-4--7-2---|---4-7-6-9-7-6-4-2-|-4--4-4--7-2---|---4-7-6-9-7-6-7-9-|
|--4--4-4--4-----|-5-------7---------|-4--4-4--4-----|-5-------7---------|
|--2--2-2--------|---------0---------|-2--2-2--------|---------0---------|


  Gtr I
  Q  E Q  E E E   E E E E E S S  E  E   Q  E Q  E E E   E E E E E  S S  E E
|------2--------|---------------------|------2--------|---------------------|
|------2------9-|-7-----5---7-9-10-12-|------2------9-|-7-----5---10-9-10-9-|
|----2-2----6-4-|---7-6-----6-4--2--1-|----2-2----6-4-|---7-6------6-4--6-7-|
|-4--4-4--7-2---|---4-7-6-9-7-6--4--2-|-4--4-4--7-2---|---4-7-6-9--7-6--7-9-|
|-4--4-4--4-----|-5-------7-----------|-4--4-4--4-----|-5-------7-----------|
|-2--2-2--------|---------0-----------|-2--2-2--------|---------0-----------|


  E E E E E E E E   E E E E E E E E   E E E E E E E E   Q.   E Q  Q
|---------4-------|-------0---5-4---|---------4-------|--------------|
|-------7---7-----|-----3---9-----3-|-------7---7-----|-2----5-9-----|
|-----6-------6---|---2-------2-4-2-|-----6-------6---|-4----2----9--|
|---6-----------6-|-0---------------|---6-----------6-|-4----2-6--2--|
|-4---------------|-----------------|-4---------------|-2----0-6--2--|
|-----------------|-----------------|-----------------|--------4--0--|


  E E E E E E E E   E E E E E E E E   E E E E E E E E   Q.   E Q  Q
|---------4-------|-------0---5-4---|---------4-------|--------------|
|-------7---7-----|-----3---9-----3-|-------7---7-----|-2----5-9-----|
|-----6-------6---|---2-------2-4-2-|-----6-------6---|-4----2----9--|
|---6-----------6-|-0---------------|---6-----------6-|-4----2-6--2--|
|-4---------------|-----------------|-4---------------|-2----0-6--2--|
|-----------------|-----------------|-----------------|--------4--0--|
|
| Gtr III
| W                 W                 W                 Q.   E Q  E
|-----------------|-----------------|-----------------|--------------|
|-----------------|-----------------|-----------------|--------------|
|-----------------|-----------------|-----------------|--------------|
|-----------------|-----------------|-----------------|--------------|
|-4---------------|-5---------------|-4---------------|-2----0-------|
|-----------------|-----------------|-----------------|--------6--2--|


  Q  E Q  E E E   E E E E E S S  E  E   Q  E Q  E E E   E E E E E  S S  E E
|------2--------|---------------------|------2--------|---------------------|
|------2------9-|-7-----5---7-9-10-12-|------2------9-|-7-----5---10-9-10-9-|
|----2-2----6-4-|---7-6-----6-4--2--1-|----2-2----6-4-|---7-6------6-4--6-7-|
|-4--4-4--7-2---|---4-7-6-9-7-6--4--2-|-4--4-4--7-2---|---4-7-6-9--7-6--7-9-|
|-4--4-4--4-----|-5-------7-----------|-4--4-4--4-----|-5-------7-----------|
|-2--2-2--------|---------0-----------|-2--2-2--------|---------0-----------|


  Q=88
  Gtr IV
   E  E  E  E  E  E  E  E   E E E E E E E E
|----------12-------------|-------0---------|
|-------17----17----------|-----6---6-------|
|----14----------14----14-|---3-------3---3-|
|-12----------------12----|-0-----------0---|
|-------------------------|-----------------|
|-------------------------|-----------------|
|
| Gtr I
|  E  E  E  E  E  E  E  E   E E E E E E E E
|-----------0-------------|-------0---------|
|--------5-----5----------|-----6---6-------|
|-----2-----------2-----2-|---3-------3---3-|
|--0-----------------0----|-0-----------0---|
|-------------------------|-----------------|
|-------------------------|-----------------|


   E  E  E  E  E  E  E  E   E E E E  E  E  E  E
|----------12-------------|---------------------|
|-------20----20----------|-----6---------17----|
|----17----------17----17-|---5---5----17----17-|
|-12----------------12----|-0-------12----------|
|-------------------------|---------------------|
|-------------------------|---------------------|
|
|  E  E  E  E  E  E  E  E   E E E E  E  E  E  E
|-----------0-------------|---------------------|
|--------8-----8----------|-----6----------5----|
|-----5-----------5-----5-|---5---5-----5-----5-|
|--0-----------------0----|-0--------0----------|
|-------------------------|---------------------|
|-------------------------|---------------------|


  Gtr II
|-------------------------|-----------------|
|-------------------------|-----------------|
|-------------------------|-----------------|
|-------------------------|-----------------|
|-------------------------|-----------------|
|-------------------------|-----------------|
|
| Gtr IV
|  E  E  E  E  E  E  E  E   E E E E E E E E
|----------12-------------|-------0---------|
|-------17----17----------|-----6---6-------|
|----14----------14----14-|---3-------3---3-|
|-12----------------12----|-0-----------0---|
|-------------------------|-----------------|
|--0--0--------0----------|-0---0---0-------|
|
| Gtr I
|  E  E  E  E  E  E  E  E   E E E E E E E E
|-----------0-------------|-------0---------|
|--------5-----5----------|-----6---6-------|
|-----2-----------2-----2-|---3-------3---3-|
|--0-----------------0----|-0-----------0---|
|-------------------------|-----------------|
|-------------------------|-----------------|


|-------------------------|---------------------|
|-------------------------|---------------------|
|-------------------------|---------------------|
|-------------------------|---------------------|
|-------------------------|---------------------|
|-------------------------|---------------------|
|
|  E  E  E  E  E  E  E  E   E E E E  E  E  E  E
|----------12-------------|---------------------|
|-------20----20----------|-----6---------17----|
|----17----------17----17-|---5---5----17----17-|
|-12----------------12----|-0-------12----------|
|-------------------------|---------------------|
|--0--0--------0----------|-0-----0--0--------0-|
|
|  E  E  E  E  E  E  E  E   E E E E  E  E  E  E
|-----------0-------------|---------------------|
|--------8-----8----------|-----6----------5----|
|-----5-----------5-----5-|---5---5-----5-----5-|
|--0-----------------0----|-0--------0----------|
|-------------------------|---------------------|
|-------------------------|---------------------|


  Gtr IV
   E  E  E  E  E  E  E  E   E E E E E E E E
|----------12-------------|-------0---------|
|-------17----17----------|-----6---6-------|
|----14----------14----14-|---3-------3---3-|
|-12----------------12----|-0-----------0---|
|-------------------------|-----------------|
|--0--0--------0----------|-0---0---0-------|
|
| Gtr I
|  E  E  E  E  E  E  E  E   E E E E E E E E
|-----------0-------------|-------0---------|
|--------5-----5----------|-----6---6-------|
|-----2-----------2-----2-|---3-------3---3-|
|--0-----------------0----|-0-----------0---|
|-------------------------|-----------------|
|-------------------------|-----------------|


   E  E  E  E  E  E  E  E   E E E E  E  E  E  E
|----------12-------------|---------------------|
|-------20----20----------|-----6---------17----|
|----17----------17----17-|---5---5----17----17-|
|-12----------------12----|-0-------12----------|
|-------------------------|---------------------|
|--0--0--------0----------|-0-----0--0--------0-|
|
|  E  E  E  E  E  E  E  E   E E E E  E  E  E  E
|-----------0-------------|---------------------|
|--------8-----8----------|-----6----------5----|
|-----5-----------5-----5-|---5---5-----5-----5-|
|--0-----------------0----|-0--------0----------|
|-------------------------|---------------------|
|-------------------------|---------------------|


  Gtr III
  E E E E E E E E   E E E E E E E E   E E E E E E E E   E E E E E  E  E  E
|-----------------|-----------------|---------0-------|--------------12----|
|-----------------|-----------------|-------------0---|-----------10----10-|
|-----4---4---4---|-----4---4---4---|-----6-----6-----|---------9----------|
|---2---2---2---2-|---2---2---2---2-|---4---4-------4-|-----6-9------------|
|-0---------------|-4---------------|-5---------------|---7----------------|
|-----------------|-----------------|-----------------|-2-------6----------|


  E E E E E E E E   E E E E E E E E   E E E E E E E E    E E E E E  E  E  E
|-----------------|-----------------|---------0-------|---------------12----|
|-----------------|-----------------|-------------0---|--------9---10----10-|
|-----4---4---4---|-----4---4---4---|-----6-----6-----|----7-9---9----------|
|---2---2---2---2-|---2---2---2---2-|---4---4-------4-|------6-9-9----------|
|-0---------------|-4---------------|-5---------------|-11-7--------9-11--7-|
|-------2-------2-|-------2-------2-|-------0-------0-|--2-------6----------|


  E E E E E E E E   E E E E E E E E
|-----5-4-----5-0-|-----7-4-----7-0-|
|-----------------|-----------------|
|-----4---4---4---|-----4---4---4---|
|---2---2---2---2-|---2---2---2---2-|
|-0---------------|-4---------------|
|-------2-------2-|-------2-------2-|


  E E E E E E E E    E  E   E   E   E   E   E  E
|-----9-8-7-6-5-4-|--0-(0)-(0)-(0)-(0)-(0)-12----|
|---------0-------|-------------9------10-----10-|
|-----6-----6-----|-----7---9-------9------------|
|---4---4-----4---|---------6---9---9------------|
|-5-------------5-|-11--7---------------9--11--7-|
|-------0-------0-|--2--------------6------------|


  E E  E E  E E  E E   E E  E E  E E  E E
|-----17-4-16---14-0-|-----19-4-17---16-0-|
|-----10--------10---|-----12--------12---|
|-----18---16---14---|-----19---18---19---|
|---2--9-2--9-2--9-2-|---2--9-2--9-2--9-2-|
|-0------------------|-4------------------|
|--------2---------2-|--------2---------2-|


  E E E E E E E E    E  E   E   E   E   E   E  E
|-----9-8-7-6-5-4-|--0-(0)-(0)-(0)-(0)-(0)-12----|
|---7-----0-------|-------------9------10-----10-|
|-7---6-----6-----|-----7---9-------9------------|
|---4---4-----4---|---------6---9---9------------|
|-5-------------5-|-11--7---------------9--11--7-|
|-------0-------0-|--2--------------6------------|


  Gtr V
  E E  E E  E E  E E   E E  E E  E E  E E
|------7----7----7---|------7----7----7---|
|---5----5----5----5-|---5----5----5----5-|
|-2----4----4----4---|-6----4----4----4---|
|---2----2----2----2-|---2----2----2----2-|
|-0------------------|-4------------------|
|--------------------|--------------------|
|
| Gtr III
| E E  E E  E E  E E   E E  E E  E E  E E
|-----17-4-16---14-0-|-----19-4-17---16-0-|
|-----10--------10---|-----12--------12---|
|-----18---16---14---|-----19---18---19---|
|---2--9-2--9-2--9-2-|---2--9-2--9-2--9-2-|
|-0------------------|-4------------------|
|--------2---------2-|--------2---------2-|


  E E E E  E E E E    E  E   E   E   E   E   E  E
|-----9---12-9-7---|------------------------12----|
|---7---7------0-7-|-----------------9--10-----10-|
|-7---6----9-6-----|--9------4---9---9------------|
|---4---4--------4-|-----6---6---9-------7---9--7-|
|-5----------------|-----7------------------------|
|------------------|--0--------------0------------|
|
| E E E E  E E E E    E  E   E   E   E   E   E  E
|-----9-8--7-6-5-4-|--0-(0)-(0)-(0)-(0)-(0)-12----|
|---7------0-------|-------------9------10-----10-|
|-7---6------6-----|-----7---9-------9------------|
|---4---4------4---|---------6---9---9------------|
|-5--------------5-|-11--7---------------9--11--7-|
|-------0--------0-|--2--------------6------------|


  Gtr V
  E E  E E  E E  E E   E E  E E  E E  E E
|------7----7----7---|------7----7----7---|
|---5----5----5----5-|---5----5----5----5-|
|-2----4----4----4---|-6----4----4----4---|
|---2----2----2----2-|---2----2----2----2-|
|-0------------------|-4------------------|
|--------------------|--------------------|
|
| Gtr III
| E E  E E  E E  E E   E E  E E  E E  E E
|-----17-4-16---14-0-|-----19-4-17---16-0-|
|-----10--------10---|-----12--------12---|
|-----18---16---14---|-----19---18---19---|
|---2--9-2--9-2--9-2-|---2--9-2--9-2--9-2-|
|-0------------------|-4------------------|
|--------2---------2-|--------2---------2-|


  E E  E  E  E  E  E  E    E   E    E    E    E    E   E  E
|------9----12--9--7----|-----------------------------12----|
|---7-----7--------0--7-|---------------------9---10-----10-|
|-7----6-----9--6-------|--9--------4----9----9-------------|
|---4-----4-----------4-|------6----6----9---------7---9--7-|
|-5---------------------|------7----------------------------|
|-----------------------|--0------------------0-------------|
|
| E E  E  E  E  E  E  E    E   E    E    E    E    E   E  E
|-----21-20-19-18-17-16-|-12-(12)-(12)-(12)-(12)-(12)-12----|
|---7-14-13-12-11-10--9-|----------------9--------10-----10-|
|-7----6-----4--6-------|------7----9---------9-------------|
|---4-----4--------4----|-----------6----9----9-------------|
|-5-------------------5-|-11---7-------------------9--11--7-|
|---------0-----------0-|--2------------------6-------------|


  Gtr II
  W                  W
|-9---------------|-12---------------|
|-----------------|------------------|
|-9---------------|------------------|
|-----------------|-11---------------|
|-----------------|------------------|
|-----------------|------------------|
|
| Gtr V
| E E E E E E E E    E E E E E E E E
|-----7---7---7---|------7---7---7---|
|---5---5---5---5-|----5---5---5---5-|
|-2---4---4---4---|--6---4---4---4---|
|---2---2---2---2-|----2---2---2---2-|
|-0---------------|--4---------------|
|-----------------|------------------|
|
| Gtr III
| E E E E E E E E    E E E E E E E E
|-----5-4-----5-0-|------7-4-----7-0-|
|-----------------|------------------|
|-----4-1-4---4-1-|------4-1-4---4-1-|
|---2---2---2---2-|----2---2---2---2-|
|-0---------------|--4---------------|
|-------2-------2-|--------2-------2-|


   Q    E  E  E  E  E  E    Q      Q       Q       Q
|-14---21-20-19-18-17-16-|-16-------------16------19----|
|------------------------|--------15--------------------|
|------------------------|------------------------------|
|-12---------------------|------------------------------|
|------------------------|------------------------------|
|------------------------|------------------------------|
|
|  E E  E  E  E  E  E  E    E  E   E   E   E   E   E  E
|-------9----12--9--7----|------------------------12----|
|----7-----7--------0--7-|-----------------9--10-----10-|
|--7----6-----9--6-------|--9------4---9---9------------|
|----4-----4-----------4-|-----6---6---9-------7---9--7-|
|--5---------------------|-----7------------------------|
|------------------------|--0--------------4------------|
|
|  E E  E  E  E  E  E  E    E  E   E   E   E   E   E  E
|-------9--8--7--6--5--4-|--0-(0)-(0)-(0)-(0)-(0)-12----|
|----7--------0----------|-------------9------10-----10-|
|--7----6--------6-------|-----7---9-------9------------|
|----4-----4--------4----|---------6---9---9------------|
|--5-------------------5-|-11--7---------------9--11--7-|
|----------0-----------0-|--2--------------6------------|


  Gtr II
   W                     W
|-17------------------|-16------------------|
|-14------------------|-17------------------|
|---------------------|---------------------|
|---------------------|---------------------|
|---------------------|---------------------|
|---------------------|---------------------|
|
| Gtr V
|  E E  E E  E E  E E    E E  E E  E E  E E
|-------7----7----7---|-------7----7----7---|
|----5----5----5----5-|----5----5----5----5-|
|--2----4----4----4---|--6----4----4----4---|
|----2----2----2----2-|----2----2----2----2-|
|--0------------------|--4------------------|
|---------------------|---------------------|
|
| Gtr III
|  E E  E E  E E  E E    E E  E E  E E  E E
|------17-4-16---14-0-|------19-4-17---16-0-|
|------10--------10---|------12--------12---|
|------18-1-16---14-1-|------19-1-18---19-1-|
|----2--9-2--9-2--9-2-|----2--9-2--9-2--9-2-|
|--0------------------|--4------------------|
|---------2---------2-|---------2---------2-|


   E  E  E  E  E  E  E  E    Q        Q         Q        Q
|-------21----24-21-19----|-16-----------------16-------19----|
|----19----19----------19-|----------15-----------------------|
|-19----------------------|-----------------------------------|
|-------------------------|-----------------------------------|
|-------------------------|-----------------------------------|
|-------------------------|-----------------------------------|
|
|  E  E  E  E  E  E  E  E    E   E    E    E    E    E   E  E
|--------9----12--9--7----|-----------------------------12----|
|-----7-----7--------0--7-|---------------------9---10-----10-|
|--7-----6-----9--6-------|--9--------4----9----9-------------|
|-----4-----4-----------4-|------6----6----9---------7---9--7-|
|--5----------------------|------7----------------------------|
|-------------------------|--0------------------4-------------|
|
|  E  E  E  E  E  E  E  E    E   E    E    E    E    E   E  E
|-------21-20-19-18-17-16-|-12-(12)-(12)-(12)-(12)-(12)-12----|
|-----7-14-13-12-11-10--9-|----------------9--------10-----10-|
|--7-----6-----4--6-------|------7----9---------9-------------|
|-----4-----4--------4----|-----------6----9----9-------------|
|--5--------------------5-|-11---7-------------------9--11--7-|
|-----------0-----------0-|--2------------------6-------------|


  Gtr II
   E  Q
|-19-17-------------|-----------------|-----------------|--------------|
|-------------------|-----------------|-----------------|--------------|
|-------------------|-----------------|-----------------|--------------|
|-------------------|-----------------|-----------------|--------------|
|-------------------|-----------------|-----------------|--------------|
|-------------------|-----------------|-----------------|--------------|
|
| Gtr I
|  E  E E E E E E E   E E E E E E E E   E E E E E E E E   Q.   E Q  Q
|-----------4-------|-------0---5-4---|---------4-------|--------------|
|---------7---7-----|-----3---9-----3-|-------7---7-----|-2----5-9-----|
|-------6-------6---|---2-------2-4-2-|-----6-------6---|-4----2----9--|
|-----6-----------6-|-0---------------|---6-----------6-|-4----2-6--2--|
|--4----------------|-----------------|-4---------------|-2----0-6--2--|
|-------------------|-----------------|-----------------|--------4--0--|
|
| Gtr III
|  W                  W                 W                 Q.   E Q  E
|-------------------|-----------------|-----------------|--------------|
|-------------------|-----------------|-----------------|--------------|
|-------------------|-----------------|-----------------|--------------|
|--6----------------|-7---------------|-6---------------|--------------|
|--4----------------|-5---------------|-4---------------|-2----0-------|
|-------------------|-----------------|-----------------|--------6--2--|


  Gtr I
  E E E E E E E E   E E E E E E E E   E E E E E E E E   E E E E E E E E
|---------4-------|-------0---5-4---|-----------------|-----------------|
|-------7---7-----|-----3---9-----3-|-7-7-7-7-7-7-7-7-|-7-7-7-7-7-7-7-7-|
|-----6-------6---|---2-------2-4-2-|-9-9-9-9-9-9-9-9-|-9-9-9-9-9-9-9-9-|
|---6-----------6-|-0---------------|-9-9-9-9-9-9-9-9-|-9-9-9-9-9-9-9-9-|
|-4---------------|-----------------|-7-7-7-7-7-7-7-7-|-7-7-7-7-7-7-7-7-|
|-----------------|-----------------|-----------------|-----------------|
|
| Gtr III                                               Gtr IV
| W                 W                                   E E E E E E E E
|-----------------|-----------------|-----------------|-----------------|
|-----------------|-----------------|-----------------|-----------------|
|-----------------|-----------------|-----------------|-----------------|
|-6---------------|-7---------------|-----------------|-----------------|
|-4---------------|-5---------------|-----------------|-----------------|
|-----------------|-----------------|-----------------|-2-2-2-2-2-2-2-2-|


  Gtr IV                             Gtr III
  E E E E E E E E                    W          W
|-----------------|----------------|----------|------|
|-----------------|----------------|----------|------|
|-----------------|----------------|----------|------|
|-----------------|----------------|----------|------|
|-----------------|----------------|----------|------|
|-2-2-2-2-2-2-2-2-|----------------|-4--------|-2----|
|
| Gtr I
| E E E E E E E E   E E E E Q   Q    W          W
|-7-7-7-7-7-7-7-7-|-7-7-7-7--------|----------|------|
|-7-7-7-7-7-7-7-7-|-7-7-7-7-8---9--|----------|------|
|-9-9-9-9-9-9-9-9-|-9-9-9-9-9--10--|----------|------|
|-9-9-9-9-9-9-9-9-|-9-9-9-9--------|-4--------|-2----|
|-7-7-7-7-7-7-7-7-|-7-7-7-7--------|-4--------|-2----|
|-0-0-0-0-0-0-0-0-|----------------|-2--------|-0----|


  Gtr III
  W          E Q  E  Q   Q     W           W
|----------|----------------|-----------|-------|
|----------|----------------|-----------|-------|
|----------|-6-7--9-13--14--|-11--------|-13----|
|----------|----------------|-----------|-------|
|----------|-4-5--7-11--12--|--9--------|-11----|
|-0--------|----------------|-----------|-------|
|
| Gtr I
| W          E Q  E  Q   Q     W           W
|----------|----------------|-----------|-------|
|-5--------|----------------|-----------|-------|
|-7--------|-6-4------------|-----------|-------|
|-7--------|-6-4--7--6---7--|--4--------|--2----|
|-5--------|-4-2--7--6---7--|--4--------|--2----|
|----------|------5--4---5--|--2--------|--0----|


  W          E Q  E  Q   Q    W          W
|----------|----------------|----------|------|
|----------|----------------|----------|------|
|----------|-6-7--9-13--14--|----------|------|
|----------|----------------|----------|------|
|----------|-4-5--7-11--12--|----------|------|
|-0--------|----------------|-4--------|-2----|
|
| W          E Q  E  Q   Q    W          W
|-5--------|----------------|----------|------|
|-5--------|----------------|----------|------|
|-7--------|-6-4------------|----------|------|
|-7--------|-6-4--7--6---7--|-4--------|-2----|
|-5--------|-4-2--7--6---7--|-4--------|-2----|
|----------|------5--4---5--|-2--------|-0----|


  W          E Q  E  Q   Q     W           W
|----------|----------------|-----------|-------|
|----------|----------------|-----------|-------|
|----------|-6-7--9-13--14--|-11--------|-13----|
|----------|----------------|-----------|-------|
|----------|-4-5--7-11--12--|--9--------|-11----|
|-0--------|----------------|-----------|-------|
|
| W          E Q  E  Q   Q     W           W
|-5--------|----------------|-----------|-------|
|-5--------|----------------|-----------|-------|
|-7--------|-6-4------------|-----------|-------|
|-7--------|-6-4--7--6---7--|--4--------|--2----|
|-5--------|-4-2--7--6---7--|--4--------|--2----|
|----------|------5--4---5--|--2--------|--0----|


   W          E Q  E  Q   Q
|-----------|----------------|----|
|-----------|----------------|----|
|-14--------|-6-7--9-13--14--|----|
|-----------|----------------|----|
|-12--------|-4-5--7-11--12--|----|
|--0--------|----------------|----|
|
|  W          E Q  E  Q   Q
|-----------|----------------|----|
|--5--------|----------------|----|
|--7--------|-6-4------------|----|
|--7--------|-6-4--7--6---7--|----|
|--5--------|-4-2--7--6---7--|----|
|-----------|------5--4---5--|----|


  Q=130
  Gtr I
  S S S S S S S S S S S S S S S S   S S S S S S S S S S S S S S S S
|---------------------------------|-----------------------------------|
|---------------------------------|-----------------------------------|
|---------------------------------|-----------------------------------|
|-4-4-4-4-4-4-4-4-4-4-4-4-4-4-4-4-|-4-4-4-4-4-4-4-4-4-4-4-4-4-4-4-4---|
|-4-4-4-4-4-4-4-4-4-4-4-4-4-4-4-4-|-1-1-1-1-1-1-1-1-1-1-1-1-1-1-1-1---|
|-2-2-2-2-2-2-2-2-2-2-2-2-2-2-2-2-|-2-2-2-2-2-2-2-2-2-2-2-2-2-2-2-2---|


  S S S S S S S S S S S S S S S S   S S S S S S S S S S S S S S S S
|---------------------------------|-----------------------------------|
|---------------------------------|-----------------------------------|
|---------------------------------|-----------------------------------|
|---------------------------------|-----------------------------------|
|-5-5-5-5-5-5-5-5-2-2-2-2-2-2-2-2-|-4-4-4-4-4-4-4-4-8-8-8-8-8-8-8-8---|
|-3-3-3-3-3-3-3-3-3-3-3-3-3-3-3-3-|-3-3-3-3-3-3-3-3-9-9-9-9-9-9-9-9---|


  Gtr II
    Q     Q          Q      Q          Q        Q        H
|---------9---------14-----18-------|-21-------22-------19-----------------|
|--------------------7--------------|----------15--------------------------|
|---------6----------------15-------|-18----------------16-----------------|
|-----------------------------------|--------------------------------------|
|-----------------------------------|--------------------------------------|
|-----------------------------------|--------------------------------------|
|
| S S S S S S S S S  S S S  S S S S    S S S S  S S S S  S S S S S S S S
|-----------------------------------|--------------------------------------|
|-----------------------------------|--------------------------------------|
|-----------------------------------|--------------------------------------|
|-4-4-4-4-4-4-4-4-4--4-4-4--4-4-4-4-|--4-4-4-4--4-4-4-4--4-4-4-4-4-4-4-4---|
|-4-4-4-4-4-4-4-4-4--4-4-4--4-4-4-4-|--1-1-1-1--1-1-1-1--1-1-1-1-1-1-1-1---|
|-2-2-2-2-2-2-2-2-2--2-2-2--2-2-2-2-|--2-2-2-2--2-2-2-2--2-2-2-2-2-2-2-2---|


  Gtr II
  Q        Q       Q       Q          Q        Q        E    E    Q
|---------10-------9-------7-------|-21-------22------------16---13-------|
|----------------------------------|-------------------14-----------------|
|----------------------------------|--------------------------------------|
|----------------------------------|--------------------------------------|
|----------------------------------|--------------------------------------|
|----------------------------------|--------------------------------------|
|
| Gtr I
| S S S S  S S S S S S S S S S S S    S S S S  S S S S  S S  S S  S S S S
|----------------------------------|--------------------------------------|
|----------------------------------|--------------------------------------|
|----------------------------------|--------------------------------------|
|----------------------------------|--------------------------------------|
|-5-5-5-5--5-5-5-5-2-2-2-2-2-2-2-2-|--4-4-4-4--4-4-4-4--8-8--8-8--8-8-8-8-|
|-3-3-3-3--3-3-3-3-3-3-3-3-3-3-3-3-|--3-3-3-3--3-3-3-3--9-9--9-9--9-9-9-9-|


  Q       Q        Q       Q         Q       Q        Q       Q
|----------------------------------|-6-------9-------10-------7-------|
|--------------------------7-------|----------------------------------|
|---------6-------10---------------|----------------------------------|
|----------------------------------|----------------------------------|
|----------------------------------|----------------------------------|
|----------------------------------|----------------------------------|
|
| Gtr I
| S S S S S S S S  S S S S S S S S   S S S S S S S S  S S S S S S S S
|----------------------------------|----------------------------------|
|----------------------------------|----------------------------------|
|----------------------------------|----------------------------------|
|-4-4-4-4-4-4-4-4--4-4-4-4-4-4-4-4-|-4-4-4-4-4-4-4-4--4-4-4-4-4-4-4-4-|
|-4-4-4-4-4-4-4-4--4-4-4-4-4-4-4-4-|-1-1-1-1-1-1-1-1--1-1-1-1-1-1-1-1-|
|-2-2-2-2-2-2-2-2--2-2-2-2-2-2-2-2-|-2-2-2-2-2-2-2-2--2-2-2-2-2-2-2-2-|


  Gtr II
  Q        Q       Q       Q         Q       Q       Q        Q
|---------10-------9---------------|-7-------6-------9-------13-------|
|--------------------------8-------|----------------------------------|
|----------------------------------|----------------------------------|
|----------------------------------|----------------------------------|
|----------------------------------|----------------------------------|
|----------------------------------|----------------------------------|
|
| Gtr I
| S S S S  S S S S S S S S S S S S   S S S S S S S S S S S S  S S S S
|----------------------------------|----------------------------------|
|----------------------------------|----------------------------------|
|----------------------------------|----------------------------------|
|----------------------------------|----------------------------------|
|-5-5-5-5--5-5-5-2-2-2-2-2-2-2-2-2-|-4-4-4-4-4-4-4-4-8-8-8-8--8-8-8-8-|
|-3-3-3-3--3-3-3-3-3-3-3-3-3-3-3-3-|-3-3-3-3-3-3-3-3-9-9-9-9--9-9-9-9-|


  Gtr II
   Q    H
|-14---18---------------------------|-----------------------------------|
|-----------------------------------|-----------------------------------|
|-----------------------------------|-----------------------------------|
|-----------------------------------|-----------------------------------|
|-----------------------------------|-----------------------------------|
|-----------------------------------|-----------------------------------|
|
| Gtr I
|  S S  S S S S S S S S S S S S S S   S S S S S S S S S S S S S S S S
|-----------------------------------|-----------------------------------|
|-----------------------------------|-----------------------------------|
|-----------------------------------|-----------------------------------|
|--4-4--4-4-4-4-4-4-4-4-4-4-4-4-4-4-|-4-4-4-4-4-4-4-4-4-4-4-4-4-4-4-4---|
|--4-4--4-4-4-4-4-4-4-4-4-4-4-4-4-4-|-1-1-1-1-1-1-1-1-1-1-1-1-1-1-1-1---|
|--2-2--2-2-2-2-2-2-2-2-2-2-2-2-2-2-|-2-2-2-2-2-2-2-2-2-2-2-2-2-2-2-2---|


  Gtr II
   H                H                  H                H
|-22---------------19---------------|-21---------------16---------------|
|-----------------------------------|-----------------------------------|
|-----------------------------------|-----------------------------------|
|-----------------------------------|-----------------------------------|
|-----------------------------------|-----------------------------------|
|-----------------------------------|-----------------------------------|
|
|  S S S S S S S S  S S S S S S S S    S S S S S S S S  S S S S S S S S
|-----------------------------------|-----------------------------------|
|-----------------------------------|-----------------------------------|
|-----------------------------------|-----------------------------------|
|-----------------------------------|-----------------------------------|
|--5-5-5-5-5-5-5-5--2-2-2-2-2-2-2-2-|--4-4-4-4-4-4-4-4--8-8-8-8-8-8-8-8-|
|--3-3-3-3-3-3-3-3--3-3-3-3-3-3-3-3-|--3-3-3-3-3-3-3-3--9-9-9-9-9-9-9-9-|


  Q=130
          Gtr II
  Q        Q        Q        Q          Q        Q        Q        Q
|------------------------------------|-14-------17-------21-------26-------|
|---------------------------14-------|-------------------------------------|
|---------11-------14----------------|-------------------------------------|
|------------------------------------|-------------------------------------|
|------------------------------------|-------------------------------------|
|------------------------------------|-------------------------------------|
|
| Gtr I
| S S S S  S S S S  S S S S  S S S S    S S S S  S S S S  S S S S  S S S S
|------------------------------------|-------------------------------------|
|------------------------------------|-------------------------------------|
|-2-2-2-2--2-2-2-2--2-2-2-2--2-2-2-2-|--2-2-2-2--2-2-2-2--2-2-2-2--2-2-2-2-|
|-4-4-4-4--4-4-4-4--4-4-4-4--4-4-4-4-|--4-4-4-4--4-4-4-4--4-4-4-4--4-4-4-4-|
|-4-4-4-4--4-4-4-4--4-4-4-4--4-4-4-4-|--4-4-4-4--4-4-4-4--4-4-4-4--4-4-4-4-|
|-2-2-2-2--2-2-2-2--2-2-2-2--2-2-2-2-|--2-2-2-2--2-2-2-2--2-2-2-2--2-2-2-2-|


  Gtr II
  Q        Q        E    E    Q          Q        E    Q        E    Q
|---------17-------16---12---19-------|-17-----------------------------------|
|-------------------------------------|---------------17-------19---15-------|
|-------------------------------------|----------14--------------------------|
|-------------------------------------|--------------------------------------|
|-------------------------------------|--------------------------------------|
|-------------------------------------|--------------------------------------|
|
| Gtr I
| S S S S  S S S S  S S  S S  S S S S    S S S S  S S  S S S S  S S  S S S S
|-------------------------------------|--------------------------------------|
|-------------------------------------|--3-3-3-3--3-3--3-3-3-3--3-3--3-3-3-3-|
|-1-1-1-1--1-1-1-1--1-1--1-1--1-1-1-1-|--2-2-2-2--2-2--2-2-2-2--2-2--2-2-2-2-|
|-2-2-2-2--2-2-2-2--2-2--2-2--2-2-2-2-|--0-0-0-0--0-0--0-0-0-0--0-0--0-0-0-0-|
|-2-2-2-2--2-2-2-2--2-2--2-2--2-2-2-2-|--------------------------------------|
|-0-0-0-0--0-0-0-0--0-0--0-0--0-0-0-0-|--5-5-5-5--5-5--5-5-5-5--5-5--5-5-5-5-|


   H                       Q           Q
|-14----------------------13----------13----------|
|-15----------------------14----------14----------|
|-------------------------------------------------|
|-------------------------------------------------|
|-------------------------------------------------|
|-------------------------------------------------|
|
| Gtr I
|  S  S  S  S  S  S  S  S  S  S  S  S  S  S  S  S
|-------------------------------------------------|
|-------------------------------------------------|
|-------------------------------------------------|
|--7--7--7--7--7--7--7--7--6--6--6--6--6--6--6--6-|
|--5--5--5--5--5--5--5--5--4--4--4--4--4--4--4--4-|
|-14-14-14-14-14-14-14-14-13-13-13-13-13-13-13-13-|
|
| Gtr IV
|  S  S  S  S  S  S  S  S  S  S  S  S  S  S  S  S
|-------------------------------------------------|
|-------------------------------------------------|
|-------------------------------------------------|
|-------------------------------------------------|
|-------------------------------------------------|
|--4--4--4--4--4--4--4--4--3--3--3--3--3--3--3--3-|


   Q        Q        Q        Q   W
|-16-------17-------19-------21--14----|
|-18-------19-------21-------21--10----|
|--------------------------------------|
|--------------------------------------|
|--------------------------------------|
|--------------------------------------|
|
|  S S S S  S S S S  S S S S  Q   W
|---------------------------------2----|
|-----------------------------6---2----|
|--1-1-1-1--2-2-2-2--4-4-4-4--6---2----|
|--3-3-3-3--4-4-4-4--6-7-6-6--6---4----|
|--4-4-4-4--4-5-5-5--7-7-7-7--4---4----|
|--4-4-4-4--5-5-5-5--7-7-7-7--4---2----|
|
|                                Gtr III
|  S S S S  S S S S  S S S S  Q   W
|--------------------------------------|
|--------------------------------------|
|--------------------------------------|
|--------------------------------------|
|--------------------------------------|
|--6-6-6-6--7-7-7-7--9-9-9-9--6---4----|


  Q=92
  Gtr II
  Q    E  Q.      Q      Q    E  Q    Q.
|-----14-14------16---|-19---17-16---14------|
|---------------------|----------------------|
|---------------------|----------------------|
|---------------------|----------------------|
|---------------------|----------------------|
|---------------------|----------------------|
|
| Gtr VI
| E E  E  E  E E  E E    E E  E  E E  E  E E
|---------------------|----------------------|
|---------------------|----------------------|
|---------------------|----------------------|
|------4-----4----4---|-------4----4-----4---|
|---2-----2----2----2-|----2-----2----2----2-|
|-2-------------------|--6-------------------|


   Q    E  Q.      Q      Q    Q    Q    Q
|------12-16------19---|-23---21-------------|
|-14-------------------|-----------21---19---|
|----------------------|---------------------|
|----------------------|---------------------|
|----------------------|---------------------|
|----------------------|---------------------|
|
|  E E  E  E  E E  E E    E E  E E  E E  E E
|----------------------|------------0------2-|
|-------------0--------|---------4----4------|
|----------------------|-------4---------4-4-|
|-------6-------6------|----4----------------|
|----4-----4-------4-6-|--2------------------|
|--7-------------------|---------------------|


  Gtr II
   W                       W                 W            E  E  E  E  Q  Q
|-16---------------|-----------------|-----------------|-19----------23-21-----|
|------------------|-----------------|-----------------|----19----19-24-22-----|
|-16---------------|-----------------|-----------------|-------20--------------|
|------------------|-----------------|-----------------|-----------------------|
|------------------|-----------------|-----------------|-----------------------|
|------------------|-----------------|-----------------|-----------------------|
|
| Gtr VI
|  E E E E E E E E   E E E E E E E E   E E E E E E E E    E  E  E  E  E  E E E
|------------------|-----------------|---------7-------|--------7-----0----7-2-|
|------7---7---7---|-----7---7---7---|-----9---0-9-----|-----7-----4-17--4-----|
|----4---4---4---4-|---4---4---4---4-|---6---6-----6-8-|--4-----4-20----20-4-4-|
|------4---4---4---|-----4---4---4---|-9---6-----6-----|-----4-----------------|
|----2---2---2---2-|---2---2---2---2-|---4---4-----4-6-|--2--------------------|
|--2---------------|-6---------------|-7---------------|-----------------------|
|
| Gtr I
|  W                 W                 W                  W
|------------------|-----------------|-----------------|-----------------------|
|------------------|-----------------|-5---------------|--7--------------------|
|------------------|-1---------------|-2---------------|--4--------------------|
|--4---------------|-4---------------|-6---------------|--4--------------------|
|--2---------------|-2---------------|-4---------------|-----------------------|
|--0---------------|-----------------|-----------------|--7--------------------|


  Gtr VI
   E E  E E  E E  E E   E E  E E  E E  E E
|---------------------|--------------------|
|---------------------|--------------------|
|----1-11-1-11-1-11-1-|---1-11-1-11-1-11-1-|
|----9--4-9--4-9--4-9-|---9--4-9--4-9--4-9-|
|----2-18-2-18-2-18-2-|---2-18-2-18-2-18-2-|
|--2------------------|-6------------------|
|
| Gtr I
|  W                    W
|---------------------|--------------------|
|---------------------|--------------------|
|---------------------|-1------------------|
|--4------------------|-4------------------|
|--2------------------|-2------------------|
|--0------------------|--------------------|
|
| Gtr II
|  W                    W
|-16------------------|-7------------------|
|-17------------------|-9------------------|
|---------------------|--------------------|
|---------------------|--------------------|
|---------------------|--------------------|
|--0------------------|-4------------------|


   E E E E E E E E    E  E  E  E  E  E  E E
|----------7-------|--------7-----0-----7-2-|
|------9---0-9-----|-----7-----4-17--4------|
|----6---6-----6-8-|--4-----4-20----20--4-4-|
|--9---6-----6-----|-----4------------------|
|----4---4-----4-6-|--2---------------------|
|--7---------------|------------------------|
|
|  W                  W
|------------------|------------------------|
|--5---------------|--7---------------------|
|--2---------------|--4---------------------|
|--6---------------|--4---------------------|
|--4---------------|------------------------|
|------------------|--7---------------------|
|
|  W                  E  E  E  E  Q     Q
|-17---------------|-19----------23----21---|
|-17---------------|----19----19-24----22---|
|------------------|-------20---------------|
|------------------|------------------------|
|------------------|------------------------|
|--5---------------|------------------------|


  Gtr VI
   E E  E E  E E  E E    E E  E E  E E  E E
|---------------------|---------------------|
|---------------------|---------------------|
|----1-11-1-11-1-11-1-|----1-11-1-11-1-11-1-|
|----9--4-9--4-9--4-9-|----9--4-9--4-9--4-9-|
|----2-18-2-18-2-18-2-|----2-18-2-18-2-18-2-|
|--2------------------|--6------------------|
|
| Gtr I
|  W                     W
|---------------------|---------------------|
|---------------------|---------------------|
|---------------------|--1------------------|
|--4------------------|--4------------------|
|--2------------------|--2------------------|
|--0------------------|---------------------|
|
| Gtr II
|  W                     W
|-16------------------|-19------------------|
|-17------------------|-21------------------|
|---------------------|---------------------|
|---------------------|---------------------|
|---------------------|---------------------|
|--0------------------|--4------------------|


   E  E  E  E  E E E E    E  E  E  E  E  E  E E
|--------------7-------|--------7-----0-----7-2-|
|--------9-----0-9-----|-----7-----4-17--4------|
|-----6-----6------6-8-|--4-----4-20----20--4-4-|
|--9-----6-------6-----|-----4------------------|
|-----4-----4------4-6-|--2---------------------|
|--7-------------------|------------------------|
|
|  W                      W
|----------------------|------------------------|
|--5-------------------|--7---------------------|
|--2-------------------|--4---------------------|
|--6-------------------|--4---------------------|
|--4-------------------|------------------------|
|----------------------|--7---------------------|
|
|              ~~
|  E  E  E  E  H          E  E  E  E  Q     Q
|-21-17----------------|-19----------23----21---|
|-------17-------------|----19----19-24----22---|
|----------16-14-------|-------20---------------|
|----------------------|------------------------|
|----------------------|------------------------|
|----------------------|------------------------|


  Gtr VI
   E E  E E  E E  E E    E E  E E  E E  E E
|---------------------|---------------------|
|---------------------|---------------------|
|----1-11-1-11-1-11-1-|----1-11-1-11-1-11-1-|
|----9--4-9--4-9--4-9-|----9--4-9--4-9--4-9-|
|----2-18-2-18-2-18-2-|----2-18-2-18-2-18-2-|
|--2------------------|--6------------------|
|
| Gtr I
|  W                     W
|---------------------|---------------------|
|---------------------|---------------------|
|---------------------|--1------------------|
|--4------------------|--4------------------|
|--2------------------|--2------------------|
|--0------------------|---------------------|
|
| Gtr II
|  W                     W
|-16------------------|-19------------------|
|-17------------------|-21------------------|
|---------------------|---------------------|
|---------------------|---------------------|
|---------------------|---------------------|
|--0------------------|--4------------------|


   E  E  E  E  E E E E    E  E  E  E  E  E  E E
|--------------7-------|--------7-----0-----7-2-|
|--------9-----0-9-----|-----7-----4-17--4------|
|-----6-----6------6-8-|--4-----4-20----20--4-4-|
|--9-----6-------6-----|-----4------------------|
|-----4-----4------4-6-|--2---------------------|
|--7-------------------|------------------------|
|
|  W                      W
|----------------------|------------------------|
|--5-------------------|--7---------------------|
|--2-------------------|--4---------------------|
|--6-------------------|--4---------------------|
|--4-------------------|------------------------|
|----------------------|--7---------------------|
|
|              ~~
|  E  E  E  E  H          E  E  E  E  Q     Q
|----------17-21-------|-19----------23----21---|
|-------17-------------|----19----19-24----22---|
|-14-16----------------|-------20---------------|
|----------------------|------------------------|
|----------------------|------------------------|
|----------------------|------------------------|


  Gtr II
   E  E  E  E  E  E  E
|-------19-23-24-23-20--|----|
|----19-----------------|----|
|-16--------------------|----|
|-----------------------|----|
|-----------------------|----|
|-----------------------|----|
|
| Gtr IV            Gtr III
|  E  E  E  E  E  E  E
|--------7-----0--------|----|
|-----7-----4-17--4-----|----|
|--4-----4-20----20--5--|----|
|-----4-----------------|----|
|--2-----------------3--|----|
|-----------------------|----|
|
| Gtr V
|  E  E  E  E  E  E  Q
|--------7-----0--------|----|
|-----7-----4-17--4-----|----|
|--4-----4-20----20--5--|----|
|-----4--------------5--|----|
|--2-----------------3--|----|
|-----------------------|----|


  Gtr I
  E E E E E E E E   E E E E E E E E   E E E E E E E E   Q.   E Q  Q
|---------4-------|-------0---5-4---|---------4-------|--------------|
|-------7---7-----|-----3---9-----3-|-------7---7-----|-2----5-9-----|
|-----6-------6---|---2-------2-4-2-|-----6-------6---|-4----2----9--|
|---6-----------6-|-0---------------|---6-----------6-|-4----2-6--2--|
|-4---------------|-----------------|-4---------------|-2----0-6--2--|
|-----------------|-----------------|-----------------|--------4--0--|
|
| Gtr VI
| E E E E E E E E   E E E E E E E E   E E E E E E E E   Q.   E Q  Q
|---------4-------|-------0---5-4---|---------4-------|--------------|
|-------7---7-----|-----3---9-----3-|-------7---7-----|-2----5-9-----|
|-----6-------6---|---2-------2-4-2-|-----6-------6---|-4----2----9--|
|---6-----------6-|-0---------------|---6-----------6-|-4----2-6--2--|
|-4---------------|-----------------|-4---------------|-2----0-6--2--|
|-----------------|-----------------|-----------------|--------6--2--|
|
| Gtr III
| W                 W                 W                 Q.   E Q  E
|-----------------|-----------------|-----------------|--------------|
|-----------------|-----------------|-----------------|--------------|
|-----------------|-----------------|-----------------|--------------|
|-----------------|-----------------|-----------------|--------------|
|-4---------------|-5---------------|-4---------------|-2----0-------|
|-----------------|-----------------|-----------------|--------6--2--|


  Gtr I
  E E E E E E E E   E E E E E E E E   E E E E E E E E   Q.   E Q  Q
|---------4-------|-------0---5-4---|---------4-------|--------------|
|-------7---7-----|-----3---9-----3-|-------7---7-----|-2----5-9-----|
|-----6-------6---|---2-------2-4-2-|-----6-------6---|-4----2----9--|
|---6-----------6-|-0---------------|---6-----------6-|-4----2-6--2--|
|-4---------------|-----------------|-4---------------|-2----0-6--2--|
|-----------------|-----------------|-----------------|--------4--0--|
|
| Gtr VI
| E E E E E E E E   E E E E E E E E   E E E E E E E E   Q.   E Q  Q
|---------4-------|-------0---5-4---|---------4-------|--------------|
|-------7---7-----|-----3---9-----3-|-------7---7-----|-2----5-9-----|
|-----6-------6---|---2-------2-4-2-|-----6-------6---|-4----2----9--|
|---6-----------6-|-0---------------|---6-----------6-|-4----2-6--2--|
|-4---------------|-----------------|-4---------------|-2----0-6--2--|
|-----------------|-----------------|-----------------|--------6--2--|
|
| Gtr III
| W                 W                 W                 Q.   E Q  E
|-----------------|-----------------|-----------------|--------------|
|-----------------|-----------------|-----------------|--------------|
|-----------------|-----------------|-----------------|--------------|
|-6---------------|-7---------------|-6---------------|--------------|
|-4---------------|-5---------------|-4---------------|-2----0-------|
|-----------------|-----------------|-----------------|--------6--2--|


  Gtr I
  E E E E E E E E   E E E E E E E E   E E E E E E E E   Q.   E Q  Q
|---------4-------|-------0---5-4---|---------4-------|--------------|
|-------7---7-----|-----3---9-----3-|-------7---7-----|-2----5-9-----|
|-----6-------6---|---2-------2-4-2-|-----6-------6---|-4----2----9--|
|---6-----------6-|-0---------------|---6-----------6-|-4----2-6--2--|
|-4---------------|-----------------|-4---------------|-2----0-6--2--|
|-----------------|-----------------|-----------------|--------4--0--|
|
| Gtr VI
| E E E E E E E E   E E E E E E E E   E E E E E E E E   Q.   E Q  Q
|---------4-------|-------0---5-4---|---------4-------|--------------|
|-------7---7-----|-----3---9-----3-|-------7---7-----|-2----5-9-----|
|-----6-------6---|---2-------2-4-2-|-----6-------6---|-4----2----9--|
|---6-----------6-|-0---------------|---6-----------6-|-4----2-6--2--|
|-4---------------|-----------------|-4---------------|-2----0-6--2--|
|-----------------|-----------------|-----------------|--------6--2--|
|
| Gtr III
| W                 W                 W                 Q.   E Q  E
|-----------------|-----------------|-----------------|--------------|
|-----------------|-----------------|-----------------|--------------|
|-----------------|-----------------|-----------------|--------------|
|-6---------------|-7---------------|-6---------------|--------------|
|-4---------------|-5---------------|-4---------------|-2----0-------|
|-----------------|-----------------|-----------------|--------6--2--|


  Gtr II
|-------------------------|-----------------|
|-------------------------|-----------------|
|-------------------------|-----------------|
|-------------------------|-----------------|
|-------------------------|-----------------|
|-------------------------|-----------------|
|
| Gtr IV
|  E  E  E  E  E  E  E  E   E E E E E E E E
|----------12-------------|-------0---------|
|-------17----17----------|-----6---6-------|
|----14----------14----14-|---3-------3---3-|
|-12----------------12----|-0-----------0---|
|-------------------------|-----------------|
|--0--0--------0----------|-0---0---0-------|
|
| Gtr I
|  E  E  E  E  E  E  E  E   E E E E E E E E
|-----------0-------------|-------0---------|
|--------5-----5----------|-----6---6-------|
|-----2-----------2-----2-|---3-------3---3-|
|--0-----------------0----|-0-----------0---|
|-------------------------|-----------------|
|-------------------------|-----------------|


|-------------------------|---------------------|
|-------------------------|---------------------|
|-------------------------|---------------------|
|-------------------------|---------------------|
|-------------------------|---------------------|
|-------------------------|---------------------|
|
|  E  E  E  E  E  E  E  E   E E E E  E  E  E  E
|----------12-------------|---------------------|
|-------20----20----------|-----6---------17----|
|----17----------17----17-|---5---5----17----17-|
|-12----------------12----|-0-------12----------|
|-------------------------|---------------------|
|--0--0--------0----------|-0-----0--0--------0-|
|
|  E  E  E  E  E  E  E  E   E E E E  E  E  E  E
|-----------0-------------|---------------------|
|--------8-----8----------|-----6----------5----|
|-----5-----------5-----5-|---5---5-----5-----5-|
|--0-----------------0----|-0--------0----------|
|-------------------------|---------------------|
|-------------------------|---------------------|


  Gtr V
   E  E  E  E  E  E  E  E   E E E E E E E E
|----------12-------------|-------0---------|
|-------17----17----------|-----6---6-------|
|----14----------14----14-|---3-------3---3-|
|-12----------------12----|-0-----------0---|
|-------------------------|-----------------|
|-------------------------|-----------------|
|
| Gtr IV
|  E  E  E  E  E  E  E  E   E E E E E E E E
|----------12-------------|-------0---------|
|-------17----17----------|-----6---6-------|
|----14----------14----14-|---3-------3---3-|
|-12----------------12----|-0-----------0---|
|-------------------------|-----------------|
|--0--0--------0----------|-0---0---0-------|
|
| Gtr I
|  E  E  E  E  E  E  E  E   E E E E E E E E
|-----------0-------------|-------0---------|
|--------5-----5----------|-----6---6-------|
|-----2-----------2-----2-|---3-------3---3-|
|--0-----------------0----|-0-----------0---|
|-------------------------|-----------------|
|-------------------------|-----------------|


   E  E  E  E  E  E  E  E   E E E E  E  E  E  E
|----------12-------------|---------------------|
|-------20----20----------|-----6---------17----|
|----17----------17----17-|---5---5----17----17-|
|-12----------------12----|-0-------12----------|
|-------------------------|---------------------|
|-------------------------|---------------------|
|
|  E  E  E  E  E  E  E  E   E E E E  E  E  E  E
|----------12-------------|---------------------|
|-------20----20----------|-----6---------17----|
|----17----------17----17-|---5---5----17----17-|
|-12----------------12----|-0-------12----------|
|-------------------------|---------------------|
|--0--0--------0----------|-0-----0--0--------0-|
|
|  E  E  E  E  E  E  E  E   E E E E  E  E  E  E
|-----------0-------------|---------------------|
|--------8-----8----------|-----6----------5----|
|-----5-----------5-----5-|---5---5-----5-----5-|
|--0-----------------0----|-0--------0----------|
|-------------------------|---------------------|
|-------------------------|---------------------|


  Gtr V
   E  E  E  E  E  E  E  E   E E E E E E E E
|-----------0-------------|-------0---------|
|--------5-----5----------|-----6---6-------|
|-----2-----------2-----2-|---3-------3---3-|
|--0-----------------0----|-0-----------0---|
|-------------------------|-----------------|
|-------------------------|-----------------|
|
| Gtr IV
|  E  E  E  E  E  E  E  E   E E E E E E E E
|----------12-------------|-------0---------|
|-------17----17----------|-----6---6-------|
|----14----------14----14-|---3-------3---3-|
|-12----------------12----|-0-----------0---|
|-------------------------|-----------------|
|--0--0--------0----------|-0---0---0-------|
|
| Gtr I
|  E  E  E  E  E  E  E  E   E E E E E E E E
|-----------0-------------|-------0---------|
|--------5-----5----------|-----6---6-------|
|-----2-----------2-----2-|---3-------3---3-|
|--0-----------------0----|-0-----------0---|
|-------------------------|-----------------|
|-------------------------|-----------------|


   E  E  E  E  E  E  E  E   E E E E  E  E  E  E
|-----------0-------------|---------------------|
|--------8-----8----------|-----6----------5----|
|-----5-----------5-----5-|---5---5-----5-----5-|
|--0-----------------0----|-0--------0----------|
|-------------------------|---------------------|
|-------------------------|---------------------|
|
|  E  E  E  E  E  E  E  E   E E E E  E  E  E  E
|----------12-------------|---------------------|
|-------20----20----------|-----6---------17----|
|----17----------17----17-|---5---5----17----17-|
|-12----------------12----|-0-------12----------|
|-------------------------|---------------------|
|--0--0--------0----------|-0-----0--0--------0-|
|
|  E  E  E  E  E  E  E  E   E E E E  E  E  E  E
|-----------0-------------|---------------------|
|--------8-----8----------|-----6----------5----|
|-----5-----------5-----5-|---5---5-----5-----5-|
|--0-----------------0----|-0--------0----------|
|-------------------------|---------------------|
|-------------------------|---------------------|


  Gtr V
   E  E  E  E  E  E  E  E   E E E E E E E E
|----------12-------------|-------0---------|
|-------17----17----------|-----6---6-------|
|----14----------14----14-|---3-------3---3-|
|-12----------------12----|-0-----------0---|
|-------------------------|-----------------|
|-------------------------|-----------------|
|
| Gtr IV
|  E  E  E  E  E  E  E  E   E E E E E E E E
|----------12-------------|-------0---------|
|-------17----17----------|-----6---6-------|
|----14----------14----14-|---3-------3---3-|
|-12----------------12----|-0-----------0---|
|-------------------------|-----------------|
|--0--0--------0----------|-0---0---0-------|
|
| Gtr I
|  E  E  E  E  E  E  E  E   E E E E E E E E
|-----------0-------------|-------0---------|
|--------5-----5----------|-----6---6-------|
|-----2-----------2-----2-|---3-------3---3-|
|--0-----------------0----|-0-----------0---|
|-------------------------|-----------------|
|-------------------------|-----------------|


   E  E  E  E  E  E  E  E   E E E E  E  E  E  E
|----------12-------------|---------------------|
|-------20----20----------|-----6---------17----|
|----17----------17----17-|---5---5----17----17-|
|-12----------------12----|-0-------12----------|
|-------------------------|---------------------|
|-------------------------|---------------------|
|
|  E  E  E  E  E  E  E  E   E E E E  E  E  E  E
|----------12-------------|---------------------|
|-------20----20----------|-----6---------17----|
|----17----------17----17-|---5---5----17----17-|
|-12----------------12----|-0-------12----------|
|-------------------------|---------------------|
|--0--0--------0----------|-0-----0--0--------0-|
|
|  E  E  E  E  E  E  E  E   E E E E  E  E  E  E
|-----------0-------------|---------------------|
|--------8-----8----------|-----6----------5----|
|-----5-----------5-----5-|---5---5-----5-----5-|
|--0-----------------0----|-0--------0----------|
|-------------------------|---------------------|
|-------------------------|---------------------|


  Gtr I
  E E E E E E E E   E E E E E E E E   E E E E E E E E   E E E E E E E E
|---------4-------|-------0---5-4---|-----------------|-----------------|
|-------7---7-----|-----3---9-----3-|-7-7-7-7-7-7-7-7-|-7-7-7-7-7-7-7-7-|
|-----6-------6---|---2-------2-4-2-|-9-9-9-9-9-9-9-9-|-9-9-9-9-9-9-9-9-|
|---6-----------6-|-0---------------|-9-9-9-9-9-9-9-9-|-9-9-9-9-9-9-9-9-|
|-4---------------|-----------------|-7-7-7-7-7-7-7-7-|-7-7-7-7-7-7-7-7-|
|-----------------|-----------------|-----------------|-----------------|
|
| Gtr VI
| E E E E E E E E   E E E E E E E E   E E E E E E E E   E E E E E E E E
|---------4-------|-------0---5-4---|-----------------|-----------------|
|-------7---7-----|-----3---9-----3-|-7-7-7-7-7-7-7-7-|-7-7-7-7-7-7-7-7-|
|-----6-------6---|---2-------2-4-2-|-9-9-9-9-9-9-9-9-|-9-9-9-9-9-9-9-9-|
|---6-----------6-|-0---------------|-9-9-9-9-9-9-9-9-|-9-9-9-9-9-9-9-9-|
|-4---------------|-----------------|-7-7-7-7-7-7-7-7-|-7-7-7-7-7-7-7-7-|
|-----------------|-----------------|-----------------|-----------------|
|
| Gtr III
| W                 W                                   E E E E E E E E
|-----------------|-----------------|-----------------|-----------------|
|-----------------|-----------------|-----------------|-----------------|
|-----------------|-----------------|-----------------|-----------------|
|-----------------|-----------------|-----------------|-----------------|
|-4---------------|-5---------------|-----------------|-----------------|
|-----------------|-----------------|-----------------|-2-2-2-2-2-2-2-2-|


  Gtr III
  E E E E E E E E                    W          W
|-----------------|----------------|----------|------|
|-----------------|----------------|----------|------|
|-----------------|----------------|----------|------|
|-----------------|----------------|----------|------|
|-----------------|----------------|----------|------|
|-2-2-2-2-2-2-2-2-|----------------|-4--------|-2----|
|
| Gtr I
| E E E E E E E E   E E E E Q   Q    W          W
|-7-7-7-7-7-7-7-7-|-7-7-7-7--------|----------|------|
|-7-7-7-7-7-7-7-7-|-7-7-7-7-8---9--|----------|------|
|-9-9-9-9-9-9-9-9-|-9-9-9-9-9--10--|----------|------|
|-9-9-9-9-9-9-9-9-|-9-9-9-9--------|-4--------|-2----|
|-7-7-7-7-7-7-7-7-|-7-7-7-7--------|-4--------|-2----|
|-0-0-0-0-0-0-0-0-|----------------|-2--------|-0----|


  W          E Q  E  Q   Q     W           W
|----------|----------------|-----------|-------|
|----------|----------------|-----------|-------|
|----------|-6-7--9-13--14--|-11--------|-13----|
|----------|----------------|-----------|-------|
|----------|-4-5--7-11--12--|--9--------|-11----|
|-0--------|----------------|-----------|-------|
|
| W          E Q  E  Q   Q     W           W
|-5--------|----------------|-----------|-------|
|-5--------|----------------|-----------|-------|
|-7--------|-6-4------------|-----------|-------|
|-7--------|-6-4--7--6---7--|--4--------|--2----|
|-5--------|-4-2--7--6---7--|--4--------|--2----|
|----------|------5--4---5--|--2--------|--0----|


   W          E Q  E  Q   Q     W           W
|-----------|----------------|-----------|-------|
|-----------|----------------|-----------|-------|
|-14--------|-6-7--9-13--14--|-11--------|-13----|
|-----------|----------------|-----------|-------|
|-12--------|-4-5--7-11--12--|--9--------|-11----|
|--0--------|----------------|-----------|-------|
|
|  W          E Q  E  Q   Q     W           W
|--5--------|----------------|-----------|-------|
|--5--------|----------------|-----------|-------|
|--7--------|-6-4------------|-----------|-------|
|--7--------|-6-4--7--6---7--|--4--------|--2----|
|--5--------|-4-2--7--6---7--|--4--------|--2----|
|-----------|------5--4---5--|--2--------|--0----|


   W          E Q  E  Q   Q     W           W
|-----------|----------------|-----------|-------|
|-----------|----------------|-----------|-------|
|-14--------|-6-7--9-13--14--|-11--------|-13----|
|-----------|----------------|-----------|-------|
|-12--------|-4-5--7-11--12--|--9--------|-11----|
|--0--------|----------------|-----------|-------|
|
|  W          E Q  E  Q   Q     W           W
|--5--------|----------------|-----------|-------|
|--5--------|----------------|-----------|-------|
|--7--------|-6-4------------|-----------|-------|
|--7--------|-6-4--7--6---7--|--4--------|--2----|
|--5--------|-4-2--7--6---7--|--4--------|--2----|
|-----------|------5--4---5--|--2--------|--0----|


   W          E Q  E  Q  E E   E Q  E Q  E E   E Q  E Q  Q  H
|-----------|----------------|---------------|-----------------|
|-----------|----------------|---------------|-----------------|
|-14--------|-6-7--9-13--9-9-|-6-4--6-7--9-9-|-9-8--9-6--9-----|
|-----------|----------------|---------------|--------------4--|
|-12--------|-4-5--7-11--7-7-|-4-2--4-5--7-7-|-7-6--7-4--7-----|
|--0--------|----------------|---------------|--------------4--|
|
|  W          E Q  E  Q  E E   E Q  E Q  E E   E Q  E Q  Q  H
|--5--------|----------------|-----------0-0-|--------------2--|
|--5--------|----------------|-----------0-0-|--------------2--|
|--7--------|-6-4------------|-6-4--6-7--9-9-|-9-8----6-----2--|
|--7--------|-6-4--7--6--7-7-|-6-4--6-7--9-9-|-7-6--9-6--6--4--|
|--5--------|-4-2--7--6--7-7-|-4-2--4-5--7-7-|-7-6--7-4--7--4--|
|-----------|------5--4--5-5-|-----------0-0-|------0----0--2--|



Duration Legend
---------------
W - whole; H - half; Q - quarter; E - 8th; S - 16th; T - 32nd; X - 64th; a - acciaccatura
+ - note tied to previous; . - note dotted; .. - note double dotted
Uncapitalized letters represent notes that are staccato (1/2 duration)
Irregular groupings are notated above the duration line
Duration letters will always appear directly above the note/fret number it represents the
duration for.  Duration letters with no fret number below them represent rests.  Multi-
bar rests are notated in the form Wxn, where n is the number of bars to rest for.  Low
melody durations appear below the staff

Tablature Legend
----------------
 h   - hammer-on
 p   - pull-off
 b   - bend
 pb  - pre-bend
 r   - bend release (if no number after the r, then release immediately)
 /\  - slide into or out of (from/to "nowhere")
 s   - legato slide
 S   - shift slide
<n> - natural harmonic
[n]  - artificial harmonic
n(n) - tapped harmonic
 ~   - vibrato
 tr  - trill
 T   - tap
 TP  - trem. picking
 PM  - palm muting
\n/  - tremolo bar dip; n = amount to dip
 \n  - tremolo bar down
 n/  - tremolo bar up
/n\  - tremolo bar inverted dip
 =   - hold bend; also acts as connecting device for hammers/pulls
 <> - volume swell (louder/softer)
 x   - on rhythm slash represents muted slash
 o   - on rhythm slash represents single note slash

Misc Legend
-----------
 |  - bar
||  - double bar
||o - repeat start
o|| - repeat end
*|  - double bar (ending)
 :  - bar (freetime)
 $  - Segno
 &  - Coda
Tempo markers - <E/E./Q/Q./H/H.> = BPM(8/16=s8/s16), where s8 = swing 8ths, s16 = swing 16ths


** Generated using Power Tab Editor by Brad Larsen: The Official Power Tab Web Site