#----------------------------------PLEASE NOTE---------------------------------#
#This file is the author's own work and represents their interpretation of the #
#song. You may only use this file for private study, scholarship, or research. #
#------------------------------------------------------------------------------#

WARP STORM
As recorded by Blood Vacuum
(From the 2005 Album TEMPORAL STORM)

Transcribed by M.Calestino

Words by MC Music by M.Calestino
Arranged by MC


Gtr I (D G C F A D) - 'rhythm 1'
Gtr II (D G C F A D) - 'strings'
Gtr III (D G C F A D) - 'brass'
Gtr IV (D G C F A D) - 'piano'

  Q=92
 4/4
  Wx4
|--------|
|--------|
|--------|
|--------|
|--------|
|--------|


  Q=92
  Gtr I
  S S S S  Q   S S S S  E E   S  S  S  S  E  E   E  E   E    E
|----------0----------------|----------------------<7>----------|
|----------8----------------|-7-----5--5--5------------<7>------|
|----------9-------7-9-11-7-|-7--5--5--5--5-----------------<7>-|
|-5-5-5-5--9-------7-7--7-7-|-4--5--5--5--5--7---9--------------|
|-7-7-7-7--7--10-9----------|----------------5---7--------------|
|---------------------------|-----------------------------------|
|
| Gtr I
| S S S S  Q   S S Q      E   S  S  S  S  E  E   E  E   E    E
|---------------------------|-----------------------------------|
|---------------------------|------------------------------<12>-|
|---------------------------|----------------------<7>----------|
|----------9-------7------4-|--------------------------<7>------|
|---------10---7-5-9------5-|-9-10-10-10-10--9--10--------------|
|-7-0-0-0-------------------|-8--8--8--8--8-(8)-----------------|


                                     Gtr IV
                                     |-3--|                |--3--|
   S  S  S  S  Q   S  S  S S  E  E   S S  S S S  S S S  S  S  S  S  S  S  S  S  S  S
|--------------7-------------------|----------------------------------------------------|
|--------------8-------------10--7-|----------------------------------------12-13-15----|
|--------------9-----------7--7--7-|---------------8-9-11----------11-12-14-------------|
|--------------9--10--9-10-0--0--7-|--------7-9-10--------10-12-14----------------------|
|--7--7--7--7--7---7--7--7---------|-7-9-10---------------------------------------------|
|--0--0--0--0----------------------|----------------------------------------------------|
|
|                                    Gtr IV
|                                    |-3--|                |--3--|
|  S  S  S  S  Q   S  S  S S  E  E   S S  S S S  S S S  S  S  S  S  S  S  S  S  S  S
|----------------------------------|----------------------------------------------------|
|----------------------------------|-----------------------------------------8-10-12----|
|----------------------------------|---------------4-5--7-----------8--9-11-------------|
|--------------9-----------9--7----|--------4-5--7---------7--9-10----------------------|
|-10-10-10-10-10--12-10-12----9--9-|-3-5--7---------------------------------------------|
|--7--7--7--7-------------------10-|----------------------------------------------------|


  Gtr I
  S S S S Q   S S S S  E E   S  S  S  S  E  E   E  E   E   E
|---------0----------------|----------------------<5>---------|
|---------8----------------|-7-----5--5--5------------<5>-<7>-|
|---------9-------7-9-11-7-|-7--5--5--5--5--------------------|
|-5-5-5-5-9-------7-7--7-7-|-4--5--5--5--5--------------------|
|-7-7-7-7-7--10-9----------|----------------5---7-------------|
|--------------------------|----------------------------------|
|
| Gtr I
| S S S S Q   S S Q      E   S  S  S  S  E  E   E  E   E   E
|--------------------------|----------------------------------|
|--------------------------|----------------------<5>---------|
|--------------------------|--------------------------<7>-----|
|---------2-------7------4-|------------------------------<7>-|
|---------2---7-5-9------5-|-9-10-10-10-10--9--10-------------|
|-7-0-0-0-0----------------|-8--8--8--8--8-(8)----------------|


                                    Gtr IV
                                    |--3--|                    |--3--|
   S  S  S  S  Q   S  S  S S  E E   S  S  S  S  S  S  S  S  S  S  S  S  S  S  S  S  S  S
|--------------7------------------|------------------11-12-14----------14-15-17-19-20-22----|
|--------------8-------------10-7-|---------10-12-13----------13-15-17----------12-13-15----|
|--------------9-----------7--7-7-|-9-11-12-----------8--9-11----------11-12-14-------------|
|--------------9--10--9-10----0-7-|----------7--9-10----------10-12-14----------------------|
|--7--7--7--7--7---7--7--7--------|-7--9-10-------------------------------------------------|
|--0--0--0--0---------------------|---------------------------------------------------------|
|
|                                   Gtr IV
|                                   |--3--|                    |--3--|
|  S  S  S  S  Q   S  S  S S  E E   S  S  S  S  S  S  S  S  S  S  S  S  S  S  S  S  S  S
|---------------------------------|-------------------7--8-10----------11-12-17-15-17-19----|
|---------------------------------|----------7--8-10----------10-12-13-----------8-10-12----|
|---------------------------------|-5--7--9-----------4--5--7-----------8--9-11-------------|
|--------------9-----------9--7-4-|----------4--5--7-----------7--9-10----------------------|
|-10-10-10-10-10--12-10-12----9-5-|-3--5--7-------------------------------------------------|
|--7--7--7--7---------------------|---------------------------------------------------------|


  Q=116
 4/4
  Gtr IV
   E  +S   +S
|-24-(24)-(24)--------------------------|---------------------------------|
|-17-(17)-(17)--------------------------|---------------------------------|
|-12-(12)-(12)--------------------------|---------------------------------|
|---------------------------------------|---------------------------------|
|---------------------------------------|---------------------------------|
|--0--(0)--(0)--------------------------|---------------------------------|
|
| Gtr I
|  E   S    S  S S  S  S  E S S S S S S    E S S S S  S  S  E S S S S S S
|---------------------------------------|---------------------------------|
|---------------------------------------|---------------------------------|
|---------------------------------------|---------------------------------|
|--9---5----5--5-5--9--9--9-5-5-5-5-5-5-|-10-5-5-5-5-10-10-10-5-5-5-5-5-5-|
|-10---7----7--7-7-10-10-10-7-7-7-7-7-7-|-10-7-7-7-7-10-10-10-7-7-7-7-7-7-|
|---------------------------------------|---------------------------------|
|
| Gtr I
|  E   S    S  S S  S  S  E S S S S S S    E S S S S  S  S  E S S S S S S
|---------------------------------------|---------------------------------|
|---------------------------------------|---------------------------------|
|--4----------------4--4--4-------------|---------------------------------|
|--2----------------2--2--2-------------|--2----------2--2--2-------------|
|--2----------------2--2--2-------------|--3----------3--3--3-------------|
|--0---0----0--0-0--0--0--0-0-0-0-0-0-0-|--3-0-0-0-0--3--3--3-0-0-0-0-0-0-|


                 Gtr IV
                  |--3--|
   H              S  S  S  S  S  S  S  S  S    Q   E  Q   E  E  E
|----------------------------------17-19-22-|-15--14-10--14-15-19----|
|----------------10-12-13-17-19-20----------|------------------------|
|-----------------------------------5--7--9-|-12--11--7--11-12-16----|
|--------------------------5--7--9----------|------------------------|
|-----------------3--5--7-------------------|------------------------|
|-------------------------------------------|------------------------|
|
|                                             Gtr III
|                 |--3--|
|  E S S S S S S  S  S  S  S  S  S  S  S  S    Q   E  Q   E  E  E
|-------------------------------------------|------------------------|
|-------------------------------------------|------------------------|
|-------------------------------------------|------------------------|
|-12--------------------------------7--9-10-|--9--10--9--12-10--7----|
|-10-5-5-7-7-9-9-----------7--9-10----------|-10--10-10--14-12--9----|
|-----------------5--7--8-------------------|------------------------|
|
|                                             Gtr III
|                 |--3--|
|  E S S S S S S  S  S  S  S  S  S  S  S  S    Q   E  Q   E  E  E
|-------------------------------------------|------------------------|
|-------------------------------------------|------------------------|
|-----------------------------------5--7--9-|------------12-11--7----|
|--5-4-4-5-5-7-7-----------5--7--9----------|--9--10--9--------------|
|--5--------------3--5--7-------------------|--7---7--7--10--9--5----|
|--3----------------------------------------|------------------------|


 4/4
  Gtr IV
   E  +S   +S
|-24-(24)-(24)--------------------------|---------------------------------|
|-17-(17)-(17)--------------------------|---------------------------------|
|-12-(12)-(12)--------------------------|---------------------------------|
|---------------------------------------|---------------------------------|
|---------------------------------------|---------------------------------|
|--0--(0)--(0)--------------------------|---------------------------------|
|
| GtrGtr I
|  E   S    S  S S  S  S  E S S S S S S    E S S S S  S  S  E S S S S S S
|---------------------------------------|---------------------------------|
|---------------------------------------|---------------------------------|
|---------------------------------------|---------------------------------|
|--9---5----5--5-5--9--9--9-5-5-5-5-5-5-|-10-5-5-5-5-10-10-10-5-5-5-5-5-5-|
|-10---7----7--7-7-10-10-10-7-7-7-7-7-7-|-10-7-7-7-7-10-10-10-7-7-7-7-7-7-|
|---------------------------------------|---------------------------------|
|
| GtrGtr I
|  E   S    S  S S  S  S  E S S S S S S    E S S S S  S  S  E S S S S S S
|---------------------------------------|---------------------------------|
|---------------------------------------|---------------------------------|
|--4----------------4--4--4-------------|---------------------------------|
|--2----------------2--2--2-------------|--2----------2--2--2-------------|
|--2----------------2--2--2-------------|--3----------3--3--3-------------|
|--0---0----0--0-0--0--0--0-0-0-0-0-0-0-|--3-0-0-0-0--3--3--3-0-0-0-0-0-0-|


                  |--3--|
   H              S  S  S  S  S  S  S  S  S    Q   E  Q   E  E  E
|----------------------------------17-19-22-|-15--14-10--14-15-19----|
|----------------10-12-13-17-19-20----------|------------------------|
|-----------------------------------5--7--9-|-12--11--7--11-12-16----|
|--------------------------5--7--9----------|------------------------|
|-----------------3--5--7-------------------|------------------------|
|-------------------------------------------|------------------------|
|
|                                             Gtr III
|                 |--3--|
|  E S S S S S S  S  S  S  S  S  S  S  S  S    Q   E  Q   E  E  E
|-------------------------------------------|--7---8--7--10--8--7----|
|-------------------------------------------|------------------------|
|-------------------------------------------|------------------------|
|-12--------------------------------7--9-10-|--9--10--9--12-10--7----|
|-10-5-5-7-7-9-9-----------7--9-10----------|-10--10-10--14-12--9----|
|-----------------5--7--8-------------------|------------------------|
|
|                                             Gtr III
|                 |--3--|
|  E S S S S S S  S  S  S  S  S  S  S  S  S    Q   E  Q   E  E  E
|-------------------------------------------|------------------------|
|-------------------------------------------|------------------------|
|-----------------------------------5--7--9-|------------12-11--7----|
|--5-4-4-5-5-7-7-----------5--7--9----------|--9--10--9--------------|
|--5--------------3--5--7-------------------|--7---7--7--10--9--5----|
|--3----------------------------------------|------------------------|


 4/4
  Gtr II
   H.                                 H.
|-17-------------------------------|-13---------------------------------|
|-17-------------------------------|-10---------------------------------|
|-17-------------------------------|-10---------------------------------|
|----------------------------------|------------------------------------|
|----------------------------------|------------------------------------|
|----------------------------------|------------------------------------|
|
| Gtr Gtr I
|  E  S S S S  S  S  E S S S S S S    E  S S S S  S  S  E   S S S S S S
|----------------------------------|------------------------------------|
|----------------------------------|------------------------------------|
|--9--5-5-5-5--9--9--9-5-5-5-5-5-5-|-10--5-5-5-5-10-10-10---5-5-5-5-5-5-|
|-10--7-7-7-7-10-10-10-7-7-7-7-7-7-|-10--7-7-7-7-10-10-10---7-7-7-7-7-7-|
|--0-------------------------------|------------------------------------|
|----------------------------------|------------------------------------|
|
| Gtr Gtr I
|  E  S S S S  S  S  E S S S S S S    E  S S S S  S  S  S S S S S S S S
|--5-----------5--5--5-------------|------------------------------------|
|--5-----------5--5--5-------------|------------------------------------|
|--5-----------5--5--5-------------|--2-----------2--2--2---------------|
|--7-----------7--7--7-------------|--3-----------3--3--3---------------|
|--7-----------7--7--7-------------|--3-----------3--3--3---------------|
|--5--5-5-5-5--5--5--5-5-5-5-5-5-5-|--1--1-1-1-1--1--1--1-1-1-1-1-1-1-1-|


   H..                                        W
|-12-----------------------------------|----------------------|
|-10-----------------------------------|----------------------|
|--5-----------------------------------|----------------------|
|--------------------------------------|----------------------|
|--------------------------------------|----------------------|
|--------------------------------------|----------------------|
|
|                                        Gtr III
|                  |-3-|
|  E   S S S S S S S S S S S  S S S  S    Q   E  Q   E  E E
|--------------------------------------|----------------------|
|--------------------------------------|----------------------|
|-12----------------------------7-9-10-|--9--10--9--12-10-7---|
|-10---6-6-7-7-9-9-------7-9-10--------|-10--10-10--10-10-9---|
|------------------5-7-8---------------|----------------------|
|--------------------------------------|----------------------|
|
|                  |-3-|
|  E   S S S S S S S S S S S  S S S  S    Q   E  Q   E  E E
|--------------------------------------|----------------------|
|-------------------------------6-8-10-|----------------------|
|--5---4-4-5-5-7-7-------5-7--9--------|--9--10--9------------|
|--5---------------3-5-7---------------|--7---7--7--10--9-0---|
|--3-----------------------------------|------------------0---|
|--------------------------------------|-------------8--7-----|


 4/4
   H.                                 H.
|--5-------------------------------|--1---------------------------------|
|--5-------------------------------|--1---------------------------------|
|--5-------------------------------|--2---------------------------------|
|----------------------------------|--3---------------------------------|
|----------------------------------|------------------------------------|
|----------------------------------|------------------------------------|
|
| Gtr Gtr I
|  E  S S S S  S  S  E S S S S S S    E  S S S S  S  S  E   S S S S S S
|-12-------------------------------|------------------------------------|
|----------------------------------|------------------------------------|
|--9--5-5-5-5--9--9--9-5-5-5-5-5-5-|-10--5-5-5-5-10-10-10---5-5-5-5-5-5-|
|-10--7-7-7-7-10-10-10-7-7-7-7-7-7-|-10--7-7-7-7-10-10-10---7-7-7-7-7-7-|
|--0-------------------------------|------------------------------------|
|----------------------------------|------------------------------------|
|
| Gtr Gtr I
|  E  S S S S  S  S  E S S S S S S    E  S S S S  S  S  S S S S S S S S
|--5-----------5--5--5-------------|------------------------------------|
|--5-----------5--5--5-------------|------------------------------------|
|--5-----------5--5--5-------------|--2-----------2--2--2---------------|
|--7-----------7--7--7-------------|--3-----------3--3--3---------------|
|--7-----------7--7--7-------------|--3-----------3--3--3---------------|
|--5--5-5-5-5--5--5--5-5-5-5-5-5-5-|--1--1-1-1-1--1--1--1-1-1-1-1-1-1-1-|


   H..
|-12-----------------------------------|-----------------------|
|--8-----------------------------------|-----------------------|
|--------------------------------------|-----------------------|
|-10-----------------------------------|-----------------------|
|--------------------------------------|-----------------------|
|--------------------------------------|-----------------------|
|
|                                        Gtr III
|                  |-3-|
|  E   S S S S S S S S S S S  S S S  S    Q   E  Q   E  E  E
|--------------------------------------|-----------------------|
|--------------------------------------|-----------------------|
|-12----------------------------7-9-10-|--9--10--9--12-10--9---|
|-10---6-6-7-7-9-9-------7-9-10--------|-10--10-10--10-10-10---|
|------------------5-7-8---------------|-----------------------|
|--------------------------------------|-----------------------|
|
|                                        Gtr III
|                  |-3-|
|  E   S S S S S S S S S S S  S S S  S    Q   E  Q   E  E  E
|--------------------------------------|-----------------------|
|-------------------------------6-8-10-|-----------------------|
|--5---4-4-5-5-7-7-------5-7--9--------|--9--10--9---------0---|
|--5---------------3-5-7---------------|--7---7--7--10--9--0---|
|--3-----------------------------------|-----------------------|
|--------------------------------------|-------------8--7------|


 4/4
  Gtr II
   H.                              H.
|-24----------------------------|-20------------------------------|
|-------------------------------|---------------------------------|
|-------------------------------|---------------------------------|
|-------------------------------|---------------------------------|
|-------------------------------|---------------------------------|
|-------------------------------|---------------------------------|
|
| Gtr Gtr I   Gtr IIGtr I         Gtr Gtr I   Gtr III Gtr I
|  E  S S S S S S E S S S S S S    E  S S S S S S E   S S S S S S
|-------------------------------|---------------------------------|
|-------------------------------|---------------------------------|
|-------------------------------|---------------------------------|
|--6----------6-6-6-------------|--7----------7-7-7---------------|
|--7----------7-7-7-------------|--8----------8-8-8---------------|
|--0--0-0-0-0-------0-0-0-0-0-0-|-----0-0-0-0---------0-0-0-0-0-0-|
|
| Gtr I
|  E  S S S S S S E S S S S S S    E  S S S S S S S S S S S S S
|-------------------------------|---------------------------------|
|-------------------------------|---------------------------------|
|-------------------------------|---------------------------------|
|-------------------------------|---------------------------------|
|--2----------2-2-2-------------|--3----------3-3-3---------------|
|--0--0-0-0-0-0-0-0-0-0-0-0-0-0-|--1--0-0-0-0-1-1-1-0-0-0-0-0-0---|


   H.                                        Q.      H
|-19--------------------------------------|-16------17--------------------|
|-----------------------------------------|-------------------------------|
|-----------------------------------------|-------------------------------|
|-----------------------------------------|-------------------------------|
|-----------------------------------------|-------------------------------|
|-----------------------------------------|-------------------------------|
|
| Gtr Gtr I                                 Gtr III
|                  |-3--|
|  E   S S S S S S S S  S S  S  S S  S  S    Q   Q   E S S  S  S  S  S
|-----------------------------------------|-------------------------------|
|-----------------------------------------|-------------------------------|
|-----10-9-9-9-9-9------------------------|-------------------------10----|
|--9------------------------------6--7--9-|------6---9-9-9-10-10-12-------|
|-10---8-7-7-7-7-7--------5--7--8---------|--7----------------------------|
|------0-0-0-0-0-0-4-5--7-----------------|-------------------------------|
|
|                                           Gtr III
|                  |-3--|
|  E   S S S S S S S S  S S  S  S S  S  S    Q   Q   E S S  S  S  S  S
|-----------------------------------------|-------------------------------|
|-----------------------------------------|-------------------------10----|
|-----------------------------------------|---------10-7-7--9--9-10-------|
|------7-6-6-6-6-6----------------9-10-12-|------9------------------------|
|--5----------------------8-11-12---------|-11----------------------------|
|--3---5-4-4-4-4-4-7-8-10-----------------|-------------------------------|


 4/4
  Gtr II
   H.                              H.
|-16----------------------------|-13------------------------------|
|-17----------------------------|-10------------------------------|
|-------------------------------|---------------------------------|
|-------------------------------|---------------------------------|
|-------------------------------|---------------------------------|
|-------------------------------|---------------------------------|
|
| Gtr Gtr I   Gtr IIGtr I         Gtr Gtr I   Gtr III Gtr I
|  E  S S S S S S E S S S S S S    E  S S S S S S E   S S S S S S
|-------------------------------|---------------------------------|
|-------------------------------|---------------------------------|
|-------------------------------|---------------------------------|
|--6----------6-6-6-------------|--7----------7-7-7---------------|
|--7----------7-7-7-------------|--8----------8-8-8---------------|
|--0--0-0-0-0-------0-0-0-0-0-0-|-----0-0-0-0---------0-0-0-0-0-0-|
|
| Gtr Gtr I   Gtr IIGtr I         Gtr Gtr I   Gtr IIGtr I
|  E  S S S S S S E S S S S S S    E  S S S S S S S S S S S S S
|-------------------------------|---------------------------------|
|-------------------------------|---------------------------------|
|-------------------------------|---------------------------------|
|-------------------------------|---------------------------------|
|--2----------2-2-2-------------|--3----------3-3-3---------------|
|--0--0-0-0-0-0-0-0-0-0-0-0-0-0-|--1--0-0-0-0-1-1-1-0-0-0-0-0-0---|


   H.                                        Q..      H
|-19--------------------------------------|-16-------17--------------------|
|-15--------------------------------------|--------------------------------|
|-----------------------------------------|--------------------------------|
|-----------------------------------------|--------------------------------|
|-----------------------------------------|--------------------------------|
|-----------------------------------------|--------------------------------|
|
| Gtr Gtr I                                 Gtr III
|                  |-3--|
|  E   S S S S S S S S  S S  S  S S  S  S    Q    Q   E S S  S  S  S  S
|-----------------------------------------|--------------------------------|
|-----------------------------------------|--------------------------------|
|-----10-9-9-9-9-9------------------------|--------------------------10----|
|--9------------------------------6--7--9-|-------6---9-9-9-10-10-12-------|
|-10---8-7-7-7-7-7--------5--7--8---------|--7-----------------------------|
|------0-0-0-0-0-0-4-5--7-----------------|--------------------------------|
|
| Gtr Gtr I                                 Gtr III
|                  |-3--|
|  E   S S S S S S S S  S S  S  S S  S  S    Q    Q   E S S  S  S  S  S
|-----------------------------------------|--------------------------------|
|-----------------------------------------|--------------------------10----|
|-----------------------------------------|----------10-7-7--9--9-10-------|
|------7-6-6-6-6-6----------------9-10-12-|-------9------------------------|
|--5----------------------8-11-12---------|-11-----------------------------|
|--3---5-4-4-4-4-4-7-8-10-----------------|--------------------------------|


  Q=92
  Gtr II   Gtr III
   Q        Q.        Q       E   Q           Q      H
|-24-------12--------10---------|-7-----------5------2--------------|
|-24-------------------------10-|-8-----------7------3--------------|
|-12-------12--------11------11-|-----------------------------------|
|--9----------------------------|-----------------------------------|
|-------------------------------|-----------------------------------|
|-------------------------------|-----------------------------------|
|
| Gtr I
|  S S S S  Q    S S  S S  E  E   S  S  S  S  E  E   E  E   E    E
|-----------0-------------------|----------------------<7>----------|
|-----------8-------------------|-7-----5--5--5------------<7>------|
|-----------9---------7-9-11--7-|-7--5--5--5--5-----------------<7>-|
|--5-5-5-5--9---------7-7--7--7-|-4--5--5--5--5--4---5--------------|
|--7-7-7-7--7---10-9------------|----------------5---7--------------|
|-------------------------------|-----------------------------------|
|
| Gtr I
|  S S S S  Q    S S  Q       E   S  S  S  S  E  E   E  E   E    E
|-------------------------------|-----------------------------------|
|-------------------------------|------------------------------<12>-|
|-------------------------------|----------------------<7>----------|
|-----------9---------7-------4-|--------------------------<7>------|
|----------10----7-5--9-------5-|-9h10-10-10-10--9h=10--------------|
|--7-0-0-0----------------------|-8--8--8--8--8-(8)-----------------|


   Q           E E  E    Q        E   Q           Q         Q              Q
|--------------7------------------5-|-7-----------8---------5--------------2-------------|
|--------------8-8-10----7--------7-|-8----------10---------7--------------4-------------|
|----------------9-11----7----------|----------------------------------------------------|
|-----------------------------------|----------------------------------------------------|
|-----------------------------------|----------------------------------------------------|
|-----------------------------------|----------------------------------------------------|
|
|                                     Gtr IV     Gtr IV
|                                     |-3--|                |--3--|
|  S  S  S  S  Q    S S  S  S  E  E   S S  S S S  S S S  S  S  S  S  S  S  S  S  S  S
|--------------7--------------------|----------------------------------------------------|
|--------------8--------------10--7-|----------------------------------------12-13-15----|
|--------------9------------7--7--7-|---------------8-9-11----------11-12-14-------------|
|--------------9---10-9-10--0--0--7-|--------7-9-10--------10-12-14----------------------|
|--7--7--7--7--7--------------------|-7-9-10---------------------------------------------|
|--0--0--0--0-----------------------|----------------------------------------------------|
|
|                                     Gtr IV     Gtr IV
|                                     |-3--|                |--3--|
|  S  S  S  S  Q    S S  S  S  E  E   S S  S S S  S S S  S  S  S  S  S  S  S  S  S  S
|-----------------------------------|----------------------------------------------------|
|-----------------------------------|-----------------------------------------8-10-12----|
|-----------------------------------|---------------4-5--7-----------8--9-11-------------|
|--------------9----7-5--7--9--7----|--------4-5--7---------7--9-10----------------------|
|-10-10-10-10-10-----------10--9--9-|-3-5--7---------------------------------------------|
|--7--7--7--7--------------------10-|----------------------------------------------------|


          Gtr III
  Q       Q   Q        Q     Q           E  E   Q      Q
|--------------------------|-------------8-10---7------5------|
|-------------8-------10---|-7-----------8-10---8------7------|
|---------9---9-------11---|-7--------------------------------|
|---------9----------------|----------------------------------|
|--------------------------|----------------------------------|
|--------------------------|----------------------------------|
|
| Gtr I
| S S S S Q   S S S S  E E   S  S  S  S  E  E   E  E   E   E
|---------0----------------|----------------------<5>---------|
|---------8----------------|-7-----5--5--5------------<5>-<7>-|
|---------9-------7-9-11-7-|-7--5--5--5--5--------------------|
|-5-5-5-5-9-------7-7--7-7-|-4--5--5--5--5--4---5-------------|
|-7-7-7-7-7--10-9----------|----------------5---7-------------|
|--------------------------|----------------------------------|
|
| Gtr I
|         ~   PM|
| S S S S Q   S S Q      E   S  S  S  S  E  E   E  E   E   E
|--------------------------|----------------------------------|
|--------------------------|----------------------<5>---------|
|--------------------------|--------------------------<7>-----|
|---------2-------7------4-|------------------------------<7>-|
|---------2---7-5-9------5-|-9-10-10-10-10--9--10-------------|
|-7-0-0-0-0----------------|-8--8--8--8--8-(8)----------------|


  E   E    E E  Q          Q     Q           Q         E        Q           E
|-----7----5-2--3--------------|----------------------------------------------------|
|-----8----7-3--5----------3---|-5-----------7---------8----------------------------|
|--------------------------2---|-5-----------7---------9-------11-----------9-------|
|------------------------------|--------------------------------9-----------9-------|
|------------------------------|----------------------------------------------------|
|------------------------------|----------------------------------------------------|
|
|                                Gtr IV
|                                |-3--|                |--3--|
| S S S S  Q    S  S  S S  E E   S S  S S S  S S S  S  S  S  S  S  S  S  S  S  S
|----------7-------------------|----------------------------------------------------|
|----------8--------------10-7-|----------------------------------------12-13-15----|
|----------9------------7--7-7-|---------------8-9-11----------11-12-14-------------|
|-5-5-5-5--9---10--9-10----0-7-|--------7-9-10--------10-12-14----------------------|
|-7-7-7-7--7-------------------|-7-9-10---------------------------------------------|
|------------------------------|----------------------------------------------------|
|
|                                Gtr IV
|                                |-3--|                |--3--|
| S S S S  Q    S  S  S S  E E   S S  S S S  S S S  S  S  S  S  S  S  S  S  S  S
|------------------------------|----------------------------------------------------|
|------------------------------|-----------------------------------------8-10-12----|
|------------------------------|---------------4-5--7-----------8--9-11-------------|
|----------9------------9--7-4-|--------4-5--7---------7--9-10----------------------|
|---------10---12-10-12----9-5-|-3-5--7---------------------------------------------|
|-0-0-0-0----------------------|----------------------------------------------------|


  Q        Q.        Q          Q           Q      H
|---------12--------10--------|-7----------10------5--------------|
|----------8---------7--------|-5-----------8------7--------------|
|-----------------------------|-----------------------------------|
|-----------------------------|-----------------------------------|
|-----------------------------|-----------------------------------|
|-----------------------------|-----------------------------------|
|
| Gtr I
| S S S S  Q    S S  S S  E E   S  S  S  S  E  E   E  E   E    E
|----------0------------------|----------------------<7>----------|
|----------8------------------|-7-----5--5--5------------<7>------|
|----------9---------7-9-11-7-|-7--5--5--5--5-----------------<7>-|
|-5-5-5-5--9---------7-7--7-7-|-4--5--5--5--5--4---5--------------|
|-7-7-7-7--7---10-9-----------|----------------5---7--------------|
|-----------------------------|-----------------------------------|
|
| Gtr I
|                 PM
| S S S S  Q    S S  Q      E   S  S  S  S  E  E   E  E   E    E
|-----------------------------|-----------------------------------|
|-----------------------------|------------------------------<12>-|
|-----------------------------|----------------------<7>----------|
|----------9---------7------4-|--------------------------<7>------|
|---------10----7-5--9------5-|-9-10-10-10-10--9--10--------------|
|-7-0-0-0---------------------|-8--8--8--8--8-(8)-----------------|


   Q           E E  E     Q       E   Q           Q         Q              Q
|--------------7-5--8-------------5-|-7-----------8---------5--------------2-------------|
|--------------8-7-10-----7-------7-|--------------------------------------4-------------|
|-------------------------7---------|-7-----------9---------5----------------------------|
|-----------------------------------|----------------------------------------------------|
|-----------------------------------|----------------------------------------------------|
|-----------------------------------|----------------------------------------------------|
|
|                                     Gtr IV
|                                     |-3--|                |--3--|
|  S  S  S  S  Q    S  S  S S  E  E   S S  S S S  S S S  S  S  S  S  S  S  S  S  S  S
|--------------7--------------------|----------------------------------------------------|
|--------------8--------------10--7-|----------------------------------------12-13-15----|
|--------------9------------7--7--7-|---------------8-9-11----------11-12-14-------------|
|--------------9---10--9-10----0--7-|--------7-9-10--------10-12-14----------------------|
|--7--7--7--7--7--------------------|-7-9-10---------------------------------------------|
|--0--0--0--0-----------------------|----------------------------------------------------|
|
|                                     Gtr IV
|                                     |-3--|                |--3--|
|  S  S  S  S  Q    S  S  S S  E  E   S S  S S S  S S S  S  S  S  S  S  S  S  S  S  S
|-----------------------------------|----------------------------------------------------|
|-----------------------------------|-----------------------------------------8-10-12----|
|-----------------------------------|---------------4-5--7-----------8--9-11-------------|
|--------------9----7--5--7-9--7----|--------4-5--7---------7--9-10----------------------|
|-10-10-10-10-10---12-10-12----9--9-|-3-5--7---------------------------------------------|
|--7--7--7--7--------------------10-|----------------------------------------------------|


  Gtr II
   Q..          Q..                  Q           Q      Q      Q
|-12-----------14-----------------|-15----------14-----17-----14------|
|--8-----------10-----------------|-17----------17-----17-----15------|
|--9------------9-----------------|-16----------14-----17-----14------|
|---------------------------------|-----------------------------------|
|---------------------------------|-----------------------------------|
|---------------------------------|-----------------------------------|
|
| Gtr I
|  S   S S S Q       S S S S  E E    S  S  S  S  E  E   E  E   E   E
|------------0--------------------|-----------------------<7>---------|
|------------8--------------------|--7-----5--5--5------------<7>-----|
|------------9-----------7-9-11-7-|--7--5--5--5--5----------------<7>-|
|--5---5-5-5-9-----------7-7--7-7-|--4--5--5--5--5--------------------|
|--7---7-7-7-7------10-9----------|-----------------5---7-------------|
|---------------------------------|-----------------------------------|
|
| Gtr I
|                      PM
|  S   S S S Q       S S Q      E    S  S  S  S  E  E   E  E   E   E
|---------------------------------|-----------------------------------|
|---------------------------------|-----------------------<5>---------|
|---------------------------------|---------------------------<7>-----|
|------------2-----------7------4-|-------------------------------<7>-|
|------------2-------7-5-9------5-|--9-10-10-10-10--9--10-------------|
|--7---0-0-0-0--------------------|--8--8--8--8--8-(8)----------------|


   Q..              Q..                     Q..                       H
|-19---------------22--------------------|-12------------------------14-------------------------------|
|-17---------------22--------------------|-13------------------------15-------------------------------|
|-16---------------19--------------------|-12------------------------14-------------------------------|
|----------------------------------------|-10------------------------12-------------------------------|
|----------------------------------------|------------------------------------------------------------|
|----------------------------------------|------------------------------------------------------------|
|
|                                          Gtr IV
|                                           |---3---|                    |--3--|
|  S    S  S  S  Q       S  S  S S  E  E    S    S  S  S  S  S  S  S  S  S  S  S  S  S  S  S  S  S
|----------------7-----------------------|---------------------11-12-14----------14-15-17-19-20-22----|
|----------------8-----------------10--7-|------------10-12-13----------13-15-17----------12-13-15----|
|----------------9---------------7--7--7-|--9---11-12-----------8--9-11----------11-12-14-------------|
|----------------9------10--9-10----0--7-|-------------7--9-10----------10-12-14----------------------|
|--7----7--7--7--7-----------------------|--7----9-10-------------------------------------------------|
|--0----0--0--0--------------------------|------------------------------------------------------------|
|
|                                          Gtr IV
|                ~~                                    PM---|
|                                           |---3---|                    |--3--|
|  S    S  S  S  Q       S  S  S S  E  E    S    S  S  S  S  S  S  S  S  S  S  S  S  S  S  S  S  S
|----------------------------------------|----------------------7--8-10----------11-12-17-15-17-19----|
|----------------------------------------|-------------7--8-10----------10-12-13-----------8-10-12----|
|----------------------------------------|--5----7--9-----------4--5--7-----------8--9-11-------------|
|----------------9---------------9--7----|-------------4--5--7-----------7--9-10----------------------|
|-10---10-10-10-10------12-10-12----9--9-|--3----5--7-------------------------------------------------|
|--7----7--7--7-----------------------10-|------------------------------------------------------------|


  Q=62
  Gtr II
   H
|----------------------------------|----------------------------------|
|-17-------------------------------|----------------------------------|
|-16-------------------------------|----------------------------------|
|-14-------------------------------|----------------------------------|
|----------------------------------|----------------------------------|
|----------------------------------|----------------------------------|
|
| Gtr I
|  H
|----------------------------------|----------------------------------|
|-17-------------------------------|----------------------------------|
|-12-------------------------------|----------------------------------|
|----------------------------------|----------------------------------|
|----------------------------------|----------------------------------|
|----------------------------------|----------------------------------|
|
| Gtr IV
|  |---3---|    |-3--| |-3-| |-3-|    |---3---|    |-3--| |-3-| |-3-|
|  S   S   S    S  S S S S S S S S    S   S   S    S  S S S S S S S S
|-19-(19)(19)-(19)-----------------|-17-(17)(17)-(17)-----------------|
|----------------------------------|----------------------------------|
|----------------------------------|----------------------------------|
|----------------------------------|----------------------------------|
|--2------------2------2-----2-----|--3------------3------3-----3-----|
|------3p==0-------3p0---3p0---3p0-|------3p==0-------3p0---3p0---3p0-|


|----------------------------------|-------------------------------------|
|----------------------------------|-------------------------------------|
|----------------------------------|-------------------------------------|
|----------------------------------|-------------------------------------|
|----------------------------------|-------------------------------------|
|----------------------------------|-------------------------------------|
|
|----------------------------------|-------------------------------------|
|----------------------------------|-------------------------------------|
|----------------------------------|-------------------------------------|
|----------------------------------|-------------------------------------|
|----------------------------------|-------------------------------------|
|----------------------------------|-------------------------------------|
|
|  |---3---|    |-3--| |-3-| |-3-|    |---3---|    |-3--| |-3-| |-3-|
|  S   S   S    S  S S S S S S S S    S   S   S    S  S S S S S S S S
|-15-(15)(15)-(15)-----------------|-14-(14)(14)-(14)--------------------|
|-17-(17)(17)-(17)-----------------|-13-(13)(13)-(13)--------------------|
|----------------------------------|-------------------------------------|
|----------------------------------|-------------------------------------|
|--5------------5------5-----5-----|--3-------------------3--------------|
|------3p==0-------3p0---3p0---3p0-|------2p==0----3--2p0---2p0-5-3p2----|


  Gtr IV
   |---3---|    |-3--| |-3-| |-3-|    |---3---|    |-3--| |-3-| |-3-|
   S   S   S    S  S S S S S S S S    S   S   S    S  S S S S S S S S
|-12-(12)(12)-(12)-----------------|-10-(10)(10)-(10)-----------------|
|--8--(8)-(8)--(8)-----------------|----------------------------------|
|----------------------------------|-11-(11)(11)-(11)-----------------|
|----------------------------------|----------------------------------|
|--7------------7------7-----7-----|--7---3--------7--3---7-3---7-3---|
|------7---3-------7-3---7-3---7-3-|----------3---------3-----3-----3-|
|
| Gtr IV
|  |---3---|    |-3--| |-3-| |-3-|    |---3---|    |-3--| |-3-| |-3-|
|  S   S   S    S  S S S S S S S S    S   S   S    S  S S S S S S S S
|----------------------------------|----------------------------------|
|----------------------------------|----------------------------------|
|----------------------------------|----------------------------------|
|----------------------------------|----------------------------------|
|--2------------2------2-----2-----|--3------------3------3-----3-----|
|------3p==0-------3p0---3p0---3p0-|------3p==0-------3p0---3p0---3p0-|


   |---3---|    |-3--| |-3-| |-3-|   |--3--|   |-3--| |-3-| |-3-|
   S   S   S    S  S S S S S S S S   S  S  S   S  S S S S S S S S
|----------------------------------|---------------------------------|
|-10-(10)(10)-(10)-----------------|-7-(7)(7)-(7)--------------------|
|--7--(7)-(7)--(7)-----------------|-5-(5)(5)-(5)--------------------|
|--4------------5------4-----5-----|---------------------------------|
|------5-----------5-----5-----5---|-7----------------7--------------|
|----------3---------3-----3-----3-|----5--3---7--5-3---5-3-8-7-5----|
|
|  |---3---|    |-3--| |-3-| |-3-|   |--3--|   |-3--| |-3-| |-3-|
|  S   S   S    S  S S S S S S S S   S  S  S   S  S S S S S S S S
|----------------------------------|---------------------------------|
|----------------------------------|---------------------------------|
|----------------------------------|---------------------------------|
|----------------------------------|---------------------------------|
|--5------------5------5-----5-----|-3----------------3--------------|
|------3p==0-------3p0---3p0---3p0-|----2p=0---3--2p0---2p0-5-3p2----|


  Gtr IV
  |--3--|   |-3--| |-3-| |-3-|   |--3--|   |-3--| |-3-| |-3-|
  S  S  S   S  S S S S S S S S   S  S  S   S  S S S S S S S S
|------------------------------|-0-(0)(0)-(0)-----------------|
|-7-(7)(7)-(7)-----------------|-1-(1)(1)-(1)-----------------|
|-4-(4)(4)-(4)-----------------|-0-(0)(0)-(0)-----------------|
|------------------------------|------------------------------|
|-7---------7------7-----7-----|-7--3------7--3---7-3---7-3---|
|----7--3------7-3---7-3---7-3-|-------3--------3-----3-----3-|
|
| Gtr IV
| |--3--|   |-3--| |-3-| |-3-|   |--3--|   |-3--| |-3-| |-3-|
| S  S  S   S  S S S S S S S S   S  S  S   S  S S S S S S S S
|------------------------------|------------------------------|
|------------------------------|------------------------------|
|------------------------------|------------------------------|
|------------------------------|------------------------------|
|-2---------2------2-----2-----|-3---------3------3-----3-----|
|----3p=0------3p0---3p0---3p0-|----3p=0------3p0---3p0---3p0-|


  |--3--|  |--3--|  |--3--|  |--3--|    |--3--|  |--3--|  |--3--|  |--3--|
  S  S  S  S  S  S  S  S  S  S  S  S    S  S  S  S  S  S  S  S  S  S  S  S
|------------------------17-19-20-22-|-24-20-15-12-------19-15----------------|
|------12-13-15-17-19-20-------------|-------------12----------17----20-22----|
|-9-12-------------------------------|----------------12----------16----------|
|-7-----5--9-----5--7-----5--9-----5-|--4--------5--------7----------16-19----|
|----7--------7--------7--------7----|-----6--3-----6--3-----6--3--7--6-------|
|------------------------------------|-----------------------------------8----|
|
| |--3--|  |--3--|  |--3--|  |--3--|    |--3--|  |--3--|  |--3--|  |--3--|
| S  S  S  S  S  S  S  S  S  S  S  S    S  S  S  S  S  S  S  S  S  S  S  S
|------------------------------------|----------------------------------------|
|------------------------------------|----------------------------------------|
|------------------------------------|----------------------------------------|
|------------------------------------|----------------------------------------|
|-9-----7-10-----7--9-----7-10-----7-|--6--------7--------9-------------------|
|----8--------8--------8--------8----|-----7--5-----7--5-----7--5--8--7--5----|


  Gtr II
   Q..                                  Q..
|------------------------------------|------------------------------------|
|--0---------------------------------|--8---------------------------------|
|--9---------------------------------|--9---------------------------------|
|--5---------------------------------|-10---------------------------------|
|--7---------------------------------|--7---------------------------------|
|------------------------------------|------------------------------------|
|
| Gtr IV
|  |----3----|    |-3--| |-3-| |-3-|    |----3----|    |-3--| |-3-| |-3-|
|  S     S   S    S  S S S S S S S S    S     S   S    S  S S S S S S S S
|-19---(19)(19)-(19)-----------------|-17---(17)(17)-(17)-----------------|
|------------------------------------|------------------------------------|
|------------------------------------|------------------------------------|
|------------------------------------|------------------------------------|
|--7--------------7------7-----7-----|--7-----3--------7--3---7-3---7-3---|
|--------7---3-------7-3---7-3---7-3-|------------3---------3-----3-----3-|
|
| Gtr IV
|  |----3----|    |-3--| |-3-| |-3-|    |----3----|    |-3--| |-3-| |-3-|
|  S     S   S    S  S S S S S S S S    S     S   S    S  S S S S S S S S
|------------------------------------|------------------------------------|
|------------------------------------|------------------------------------|
|------------------------------------|------------------------------------|
|------------------------------------|------------------------------------|
|--2--------------2------2-----2-----|--3--------------3------3-----3-----|
|--------3p==0-------3p0---3p0---3p0-|--------3p==0-------3p0---3p0---3p0-|


   Q..                                  Q..
|-10---------------------------------|---------------------------------------|
|--8---------------------------------|--7------------------------------------|
|--7---------------------------------|--5------------------------------------|
|--5---------------------------------|-10------------------------------------|
|--5---------------------------------|--9------------------------------------|
|-19---------------------------------|---------------------------------------|
|
|  |----3----|    |-3--| |-3-| |-3-|    |----3----|    |-3--| |-3-| |-3-|
|  S     S   S    S  S S S S S S S S    S     S   S    S  S S S S S S S S
|-15---(15)(15)-(15)-----------------|-14---(14)(14)-(14)--------------------|
|-17---(17)(17)-(17)-----------------|-13---(13)(13)-(13)--------------------|
|------------------------------------|---------------------------------------|
|--4--------------5------4-----5-----|---------------------------------------|
|--------5-----------5-----5-----5---|--7---------------------7--------------|
|------------3---------3-----3-----3-|--------5---3----7--5-3---5-3-8-7-5----|
|
|  |----3----|    |-3--| |-3-| |-3-|    |----3----|    |-3--| |-3-| |-3-|
|  S     S   S    S  S S S S S S S S    S     S   S    S  S S S S S S S S
|------------------------------------|---------------------------------------|
|------------------------------------|---------------------------------------|
|------------------------------------|---------------------------------------|
|------------------------------------|---------------------------------------|
|--5--------------5------5-----5-----|--3---------------------3--------------|
|--------3p==0-------3p0---3p0---3p0-|--------2p==0----3--2p0---2p0-5-3p2----|


  Gtr II
   Q..                                  Q..
|-15---------------------------------|-20---------------------------------|
|-12---------------------------------|-17---------------------------------|
|--9---------------------------------|-17---------------------------------|
|------------------------------------|-10---------------------------------|
|--7---------------------------------|------------------------------------|
|------------------------------------|------------------------------------|
|
| Gtr IV
|  |----3----|    |-3--| |-3-| |-3-|    |----3----|    |-3--| |-3-| |-3-|
|  S     S   S    S  S S S S S S S S    S     S   S    S  S S S S S S S S
|-12---(12)(12)-(12)-----------------|------------------------------------|
|--8----(8)-(8)--(8)-----------------|-13---(13)(13)-(13)-----------------|
|------------------------------------|-12---(12)(12)-(12)-----------------|
|------------------------------------|------------------------------------|
|--7--------------7------7-----7-----|--7-----3--------7--3---7-3---7-3---|
|--------7---3-------7-3---7-3---7-3-|------------3---------3-----3-----3-|
|
| Gtr IV
|  |----3----|    |-3--| |-3-| |-3-|    |----3----|    |-3--| |-3-| |-3-|
|  S     S   S    S  S S S S S S S S    S     S   S    S  S S S S S S S S
|------------------------------------|------------------------------------|
|------------------------------------|------------------------------------|
|------------------------------------|------------------------------------|
|------------------------------------|------------------------------------|
|--2--------------2------2-----2-----|--3--------------3------3-----3-----|
|--------3p==0-------3p0---3p0---3p0-|--------3p==0-------3p0---3p0---3p0-|


   Q..                                     Q..
|-20------------------------------------|-14---------------------------------------|
|-19------------------------------------|-16---------------------------------------|
|-11------------------------------------|--8---------------------------------------|
|-10------------------------------------|--9---------------------------------------|
|---------------------------------------|------------------------------------------|
|---------------------------------------|------------------------------------------|
|
|  |---3---|  |--3--|  |--3--|  |--3--|    |---3---|  |--3--|  |--3--|  |--3--|
|  S    S  S  S  S  S  S  S  S  S  S  S    S    S  S  S  S  S  S  S  S  S  S  S
|---------------------------17-19-20-22-|-24---20-15-12-------19-15----------------|
|---------12-13-15-17-19-20-------------|---------------12----------17----20-22----|
|--9---12-------------------------------|------------------12----------16----------|
|--7-------5--9-----5--7-----5--9-----5-|--4----------5--------7----------16-19----|
|-------7--------7--------7--------7----|-------6--3-----6--3-----6--3--7--6-------|
|---------------------------------------|-------------------------------------8----|
|
|  |---3---|  |--3--|  |--3--|  |--3--|    |---3---|  |--3--|  |--3--|  |--3--|
|  S    S  S  S  S  S  S  S  S  S  S  S    S    S  S  S  S  S  S  S  S  S  S  S
|---------------------------------------|------------------------------------------|
|---------------------------------------|------------------------------------------|
|---------------------------------------|------------------------------------------|
|---------------------------------------|------------------------------------------|
|--9-------7-10-----7--9-----7-10-----7-|--6----------7--------9-------------------|
|-------8--------8--------8--------8----|-------7--5-----7--5-----7--5--8--7--5----|


  Gtr II
   Q..                                  Q..
|------------------------------------|------------------------------------|
|--0---------------------------------|--8---------------------------------|
|--9---------------------------------|--9---------------------------------|
|--5---------------------------------|-10---------------------------------|
|--7---------------------------------|--7---------------------------------|
|------------------------------------|------------------------------------|
|
| Gtr IV
|  |----3----|    |-3--| |-3-| |-3-|    |----3----|    |-3--| |-3-| |-3-|
|  S     S   S    S  S S S S S S S S    S     S   S    S  S S S S S S S S
|-12---(12)(12)-(12)-----------------|-10---(10)(10)-(10)-----------------|
|--8----(8)-(8)--(8)-----------------|------------------------------------|
|------------------------------------|-11---(11)(11)-(11)-----------------|
|------------------------------------|------------------------------------|
|--7--------------7------7-----7-----|--7-----3--------7--3---7-3---7-3---|
|--------7---3-------7-3---7-3---7-3-|------------3---------3-----3-----3-|
|
| Gtr IV
|  |----3----|    |-3--| |-3-| |-3-|    |----3----|    |-3--| |-3-| |-3-|
|  S     S   S    S  S S S S S S S S    S     S   S    S  S S S S S S S S
|------------------------------------|------------------------------------|
|------------------------------------|------------------------------------|
|------------------------------------|------------------------------------|
|------------------------------------|------------------------------------|
|--2--------------2------2-----2-----|--3--------------3------3-----3-----|
|--------3p==0-------3p0---3p0---3p0-|--------3p==0-------3p0---3p0---3p0-|


   Q..                                  Q..
|-10---------------------------------|------------------------------------|
|--8---------------------------------|--7---------------------------------|
|--7---------------------------------|--5---------------------------------|
|--5---------------------------------|-10---------------------------------|
|--5---------------------------------|--9---------------------------------|
|-19---------------------------------|------------------------------------|
|
|  |----3----|    |-3--| |-3-| |-3-|    |---3---|   |-3--| |-3-| |-3-|
|  S     S   S    S  S S S S S S S S    S    S  S   S  S S S S S S S S
|------------------------------------|------------------------------------|
|-10---(10)(10)-(10)-----------------|--7---(7)(7)-(7)--------------------|
|--7----(7)-(7)--(7)-----------------|--5---(5)(5)-(5)--------------------|
|--4--------------5------4-----5-----|------------------------------------|
|--------5-----------5-----5-----5---|--7------------------7--------------|
|------------3---------3-----3-----3-|-------5--3---7--5-3---5-3-8-7-5----|
|
|  |----3----|    |-3--| |-3-| |-3-|    |---3---|   |-3--| |-3-| |-3-|
|  S     S   S    S  S S S S S S S S    S    S  S   S  S S S S S S S S
|------------------------------------|------------------------------------|
|------------------------------------|------------------------------------|
|------------------------------------|------------------------------------|
|------------------------------------|------------------------------------|
|--5--------------5------5-----5-----|--3------------------3--------------|
|--------3p==0-------3p0---3p0---3p0-|-------2p=0---3--2p0---2p0-5-3p2----|


  Gtr II
   Q..                               Q..
|-15------------------------------|-20------------------------------|
|-12------------------------------|-17------------------------------|
|--9------------------------------|-17------------------------------|
|---------------------------------|-10------------------------------|
|--7------------------------------|---------------------------------|
|---------------------------------|---------------------------------|
|
| Gtr IV
|  |---3---|   |-3--| |-3-| |-3-|    |---3---|   |-3--| |-3-| |-3-|
|  S    S  S   S  S S S S S S S S    S    S  S   S  S S S S S S S S
|---------------------------------|--0---(0)(0)-(0)-----------------|
|--7---(7)(7)-(7)-----------------|--1---(1)(1)-(1)-----------------|
|--4---(4)(4)-(4)-----------------|--0---(0)(0)-(0)-----------------|
|---------------------------------|---------------------------------|
|--7-----------7------7-----7-----|--7----3------7--3---7-3---7-3---|
|-------7--3------7-3---7-3---7-3-|----------3--------3-----3-----3-|
|
| Gtr IV
|  |---3---|   |-3--| |-3-| |-3-|    |---3---|   |-3--| |-3-| |-3-|
|  S    S  S   S  S S S S S S S S    S    S  S   S  S S S S S S S S
|---------------------------------|---------------------------------|
|---------------------------------|---------------------------------|
|---------------------------------|---------------------------------|
|---------------------------------|---------------------------------|
|--2-----------2------2-----2-----|--3-----------3------3-----3-----|
|-------3p=0------3p0---3p0---3p0-|-------5p=0------5p0---5p0---5p0-|


   Q..                                     Q..
|-20------------------------------------|-14---------------------------------------|
|-19------------------------------------|-16---------------------------------------|
|-11------------------------------------|--8---------------------------------------|
|-10------------------------------------|--9---------------------------------------|
|---------------------------------------|------------------------------------------|
|---------------------------------------|------------------------------------------|
|
|  |---3---|  |--3--|  |--3--|  |--3--|    |---3---|  |--3--|  |--3--|  |--3--|
|  S    S  S  S  S  S  S  S  S  S  S  S    S    S  S  S  S  S  S  S  S  S  S  S
|---------------------------17-19-20-22-|-24---20-15-12-------19-15----------------|
|---------12-13-15-17-19-20-------------|---------------12----------17----20-22----|
|--9---12-------------------------------|------------------12----------16----------|
|--7-------5--9-----5--7-----5--9-----5-|--4----------5--------7----------16-19----|
|-------7--------7--------7--------7----|-------6--3-----6--3-----6--3--7--6-------|
|---------------------------------------|-------------------------------------8----|
|
|  |---3---|  |--3--|  |--3--|  |--3--|    |---3---|  |--3--|  |--3--|  |--3--|
|  S    S  S  S  S  S  S  S  S  S  S  S    S    S  S  S  S  S  S  S  S  S  S  S
|---------------------------------------|------------------------------------------|
|---------------------------------------|------------------------------------------|
|---------------------------------------|------------------------------------------|
|---------------------------------------|------------------------------------------|
|--9-------7-10-----7--9-----7-10-----7-|--6----------7--------9-------------------|
|-------8--------8--------8--------8----|-------7--5-----7--5-----7--5--8--7--5----|


  GtrGtr IIV
   |--3--|  |--3---|   |--3---|  |-3--|    |-3--| |-3-|  |-3--|  |-3--|
   S S   S  S   S  S   S  S   S  S S  S    S  S S S S S  S  S S  S  S S
|-24---(24)---(24)---(24)---(24)--------|-------------------------------|
|---------------------------------------|-------------------------------|
|---------------------------------------|-------------------------------|
|--4--------4---------------------------|--5--5-5-5-5-5--5--5-5--5--5-5-|
|----2---2------2------2--3---6--3-6--7-|--3--3-3-3-3-3--7--3-3--7--3-3-|
|------------------3--------------------|-------------------------------|
|
| Gtr II                                          Gtr III
|  H                                       E      E      E       E
|-12------------------------------------|-------------------------------|
|-12------------------------------------|------------------------8------|
|-12------------------------------------|----------------9--------------|
|--5------------------------------------|---------9---------------------|
|---------------------------------------|-------------------------------|
|---------------------------------------|-------------------------------|
|
| Gtr I
|  |--3--|  |--3---|   |--3---|  |-3--|    |-3--| |-3-|  |-3--|  |-3--|
|  S S   S  S   S  S   S  S   S  S S  S    S  S S S S S  S  S S  S  S S
|---------------------------------------|-------------------------------|
|---------------------------------------|-------------------------------|
|---------------------------------------|-------------------------------|
|---------------------------------------|-10------------10------10------|
|--2--------2----------6--7---9--7-9-10-|----10-7-7-7-7----10-7----10-7-|
|----0---0------3--0--------------------|-------------------------------|


  |-3-| |-3-| |-3-| |-3-|   |-3-| |-3-| |-3-| |-3-|
  S S S S S S S S S S S S   S S S S S S S S S S S S
|-------------------------|----------------------------|
|-------------------------|-------------7--------------|
|-------------------------|----------------------------|
|-4-----------4-----4-----|-7-7-7-7-5-----7-7-7-5------|
|---2-2-2-2-2---5-2---5-2-|-----------7-----------7----|
|-------------------------|----------------------------|
|
| Q           E     E       E     E     E     E
|-------------------------|-------------5-----7--------|
|-7-----------------------|-7-----3--------------------|
|-------------7-----------|----------------------------|
|-------------------7-----|----------------------------|
|-------------------------|----------------------------|
|-------------------------|----------------------------|
|
|                           Gtr III
| |-3-| |-3-| |-3-| |-3-|   |-3-| |-3-| |-3-| |-3-|
| S S S S S S S S S S S S   S S S S S S S S S S S S
|-------------------------|----------------------------|
|-------------------------|----------------------------|
|-------------------------|----------------------------|
|-------------------------|-------------9--------------|
|-5-----------5-----5-----|-9-9-9-9-7-----9-9-9-7------|
|---3-3-3-3-3---5-3---5-3-|-----------8-----------8----|


  Gtr II
   Q..                                     Q..
|-12------------------------------------|--8------------------------------------|
|--8------------------------------------|--5------------------------------------|
|--9------------------------------------|--5------------------------------------|
|--9------------------------------------|--5------------------------------------|
|---------------------------------------|---------------------------------------|
|---------------------------------------|---------------------------------------|
|
| Gtr IV
|  |---3---|  |--3--|  |--3--|  |--3--|    |---3---|  |--3--|  |--3--|  |--3--|
|  S    S  S  S  S  S  S  S  S  S  S  S    S    S  S  S  S  S  S  S  S  S  S  S
|-24---19----19----------------19-15----|-20---15----15----------12-------------|
|---------20----20-------17-19-------17-|---------17----17----13-------13-------|
|------------------21-20----------------|------------------16-------12----12----|
|---------------------------------------|------------------------------------14-|
|---------------------------------------|---------------------------------------|
|---------------------------------------|---------------------------------------|
|
| Gtr I
|  |---3---|  |--3--|  |--3--|  |--3--|    |---3---|  |--3--|  |--3--|  |--3--|
|  S    S  S  S  S  S  S  S  S  S  S  S    S    S  S  S  S  S  S  S  S  S  S  S
|---------------------------------------|---------------------------------------|
|---------------------------------------|---------------------------------------|
|---------------------------------------|---------------------------------------|
|---------------------------------------|-10----5--5--5--5--5-10-------10-------|
|--2----------2--------6--7--9--7--9-10-|-10----7--7--7--7--7----10--7----10--7-|
|-------0--0-----3--0-------------------|---------------------------------------|


   Q..                                     Q..
|--5------------------------------------|-14---------------------------------------|
|--8------------------------------------|-13---------------------------------------|
|--7------------------------------------|-11---------------------------------------|
|--5------------------------------------|------------------------------------------|
|---------------------------------------|--9---------------------------------------|
|---------------------------------------|------------------------------------------|
|
|  |---3---|  |--3--|  |--3--|  |--3--|    |---3---|  |--3--|  |--3--|  |--3--|
|  S    S  S  S  S  S  S  S  S  S  S  S    S    S  S  S  S  S  S  S  S  S  S  S
|---------10-14-15-14-10----------10-15-|-14---15-17-19----20-19-14-------12-------|
|------10----------------10----10-------|---------------17----------15-------13----|
|-12------------------------11----------|------------------------------14----------|
|---------------------------------------|------------------------------------------|
|---------------------------------------|------------------------------------------|
|---------------------------------------|------------------------------------------|
|
|                                         Gtr III
|  |---3---|  |--3--|  |--3--|  |--3--|    |---3---|  |--3--|  |--3--|  |--3--|
|  S    S  S  S  S  S  S  S  S  S  S  S    s    s  s  s  s  s  s  s  s  s  s  s
|---------------------------------------|------------------------------------------|
|---------------------------------------|------------------------------------------|
|---------------------------------------|------------------------------------------|
|---------------------------------------|----------------------9-------------------|
|--5-------------------5--------5-------|--9----9--9--9--7--------9--9--9--7-------|
|-------3--3--3--3--3-----5--3-----5--3-|-------------------8-----------------8----|


    Gtrs II, IV
     Q..                         Q..
|---12------------------------|--8-----------------------------|
|----8------------------------|--5-----------------------------|
|----9------------------------|--5-----------------------------|
|----9------------------------|--5-----------------------------|
|-----------------------------|--------------------------------|
|-----------------------------|--------------------------------|
|
| Gtr I                                        Gtr III
| |--3---| |-3-| |-3-| |-3--|    |--3--| |-3-|  |-3--|  |-3--|
| S  S   S S S S S S S S S  S    S   S S S S S  S  S S  S  S S
|-----------------------------|--------------------------------|
|-----------------------------|-----------------5-------5------|
|-4--------4------------------|--9-----------------5-------5---|
|----2---2---5-2-4-5-7-5-7--9-|--5---5-5-5-5-5-------5-------5-|
|-----------------------------|--------------------------------|
|-----------------------------|--------------------------------|
|
| Gtr I                                        Gtr III
| |--3---| |-3-| |-3-| |-3--|    |--3--| |-3-|  |-3--|  |-3--|
| S  S   S S S S S S S S S  S    S   S S S S S  S  S S  S  S S
|-----------------------------|--------------------------------|
|-----------------------------|--------------------------------|
|-----------------------------|--------------------------------|
|-----------------------------|-10-------------10------10------|
|-2--------2-----6-7-9-7-9-10-|-10---7-7-7-7-7----10-7----10-7-|
|----0---0---3-0--------------|--------------------------------|


  Q..                          Q..
|-5-------------------------|-14----------------------------|
|-8-------------------------|-13----------------------------|
|-7-------------------------|-11----------------------------|
|-5-------------------------|-------------------------------|
|---------------------------|--9----------------------------|
|---------------------------|-------------------------------|
|
| Gtr I                       Gtr III
| |--3--| |-3-| |-3-| |-3-|    |--3--| |-3-| |-3-| |-3-|
| S   S S S S S S S S S S S    S   S S S S S S S S S S S
|---------------------------|-------------------------------|
|---------------------------|----------------7--------------|
|---------------------------|-------------------------------|
|-7-------------7-----7-----|--7---7-7-7-5-----7-7-7-5------|
|-----5-5-5-5-5---7-5---7-5-|--------------7-----------7----|
|---------------------------|-------------------------------|
|
| Gtr I                       Gtr III
| |--3--| |-3-| |-3-| |-3-|    |--3--| |-3-| |-3-| |-3-|
| S   S S S S S S S S S S S    s   s s s s s s s s s s s
|---------------------------|-------------------------------|
|---------------------------|-------------------------------|
|---------------------------|-------------------------------|
|---------------------------|----------------9--------------|
|-5-------------5-----5-----|--9---9-9-9-7-----9-9-9-7------|
|-----3-3-3-3-3---5-3---5-3-|--------------8-----------8----|


    Gtr II
     Q..                         Q..
|---12------------------------|--8-----------------------------|
|----8------------------------|--5-----------------------------|
|----9------------------------|--5-----------------------------|
|----9------------------------|--5-----------------------------|
|-----------------------------|--3-----------------------------|
|----0------------------------|--------------------------------|
|
| Gtr I          Gtr III             Gtr I     Gtr III
| |--3---| |-3-| |-3-| |-3--|    |--3--| |-3-|  |-3--|  |-3--|
| S  S   S S S S S S S S S  S    S   S S S S S  S  S S  S  S S
|-----------------------------|--------------------------------|
|-----------------------------|-----------------5-------5------|
|-4--------4------------------|--9-----------------5-------5---|
|----2---2---5-2-4-5-7-5-7--9-|--5---5-5-5-5-5-------5-------5-|
|-----------------------------|--------------------------------|
|-----------------------------|--------------------------------|
|
| Gtr I          Gtr III             Gtr I     Gtr III
| |--3---| |-3-| |-3-| |-3--|    |--3--| |-3-|  |-3--|  |-3--|
| S  S   S S S S S S S S S  S    S   S S S S S  S  S S  S  S S
|-----------------------------|--------------------------------|
|-----------------------------|--------------------------------|
|-----------------------------|--------------------------------|
|-----------------------------|-10-------------10------10------|
|----------2-----6-7-9-7-9-10-|-10---7-7-7-7-7----10-7----10-7-|
|-3--0---0---3-0--------------|--------------------------------|


  Q..                          Q..
|-5-------------------------|-14----------------------------|
|-8-------------------------|-13----------------------------|
|-7-------------------------|-11----------------------------|
|-5-------------------------|-------------------------------|
|---------------------------|--9----------------------------|
|-3-------------------------|-------------------------------|
|
| Gtr I                       Gtr III
| |--3--| |-3-| |-3-| |-3-|    |--3--| |-3-| |-3-| |-3-|
| S   S S S S S S S S S S S    S   S S S S S S S S S S S
|---------------------------|-------------------------------|
|---------------------------|----------------7--------------|
|---------------------------|-------------------------------|
|-7-------------7-----7-----|--7---7-7-7-5-----7-7-7-5------|
|-----5-5-5-5-5---7-5---7-5-|--------------7-----------7----|
|---------------------------|-------------------------------|
|
| Gtr I                       Gtr III
| |--3--| |-3-| |-3-| |-3-|    |--3--| |-3-| |-3-| |-3-|
| S   S S S S S S S S S S S    S   S S S S S S S S S S S
|---------------------------|-------------------------------|
|---------------------------|-------------------------------|
|---------------------------|-------------------------------|
|---------------------------|----------------9--------------|
|-5-------------5-----5-----|--9---9-9-9-7-----9-9-9-7------|
|-----3-3-3-3-3---5-3---5-3-|--------------8-----------8----|


  Gtr IV
   |--3--|  |--3--|  |--3--|  |--3--|
   S  S  S  S  S  S  S  S  S  S  S  S
|-14-15-17-19----20-19-14-------12-------|
|-------------17----------15-------13----|
|----------------------------14----------|
|----------------------------------------|
|--9-10-12-14----15-14--9--5--0--7-15----|
|-------------12-------------------------|
|
| Gtr III
|  |--3--|  |--3--|  |--3--|  |--3--|
|  S  S  S  S  S  S  S  S  S  S  S  S
|----------------------------------------|
|--------------------7-------------------|
|----------------------------------------|
|--7--7--7--7--5--------7--7--7--5-------|
|-----------------7-----------------7----|
|----------------------------------------|
|
| Gtr I
|  |--3--|  |--3--|  |--3--|  |--3--|
|  S  S  S  S  S  S  S  S  S  S  S  S
|----------------------------------------|
|----------------------------------------|
|----------------------------------------|
|--------------------9-------------------|
|--9--9--9--9--7--------9--9--9--7-------|
|-----------------8-----------------8----|


  Q=116
  Gtrs II, IV
   E  +E   +E
|-24-(24)-(24)--------------------------|---------------------------------|
|-17-(17)-(17)--------------------------|---------------------------------|
|-12-(12)-(12)--------------------------|---------------------------------|
|---------------------------------------|---------------------------------|
|---------------------------------------|---------------------------------|
|--0--(0)--(0)--------------------------|---------------------------------|
|
| GtrGtr I
|  E   S    S  S S  S  S  E S S S S S S    E S S S S  S  S  E S S S S S S
|-12------------------------------------|---------------------------------|
|--8------------------------------------|---------------------------------|
|---------------------------------------|---------------------------------|
|--9---5----5--5-5--9--9--9-5-5-5-5-5-5-|-10-5-5-5-5-10-10-10-5-5-5-5-5-5-|
|-10---7----7--7-7-10-10-10-7-7-7-7-7-7-|-10-7-7-7-7-10-10-10-7-7-7-7-7-7-|
|---------------------------------------|---------------------------------|
|
| GtrGtr I
|  E   S    S  S S  S  S  E S S S S S S    E S S S S  S  S  E S S S S S S
|---------------------------------------|---------------------------------|
|---------------------------------------|---------------------------------|
|--4----------------4--4--4-------------|---------------------------------|
|--2----------------2--2--2-------------|--2----------2--2--2-------------|
|--2----------------2--2--2-------------|--3----------3--3--3-------------|
|--0---0----0--0-0--0--0--0-0-0-0-0-0-0-|--3-0-0-0-0--3--3--3-0-0-0-0-0-0-|


                 Gtr IV
                  |--3--|
   H              S  S  S  S  S  S  S  S  S    Q   E  Q   E  E  E
|----------------------------------17-19-22-|-15--14-10--14-15-19----|
|----------------10-12-13-17-19-20----------|------------------------|
|-----------------------------------5--7--9-|-12--11--7--11-12-16----|
|--------------------------5--7--9----------|------------------------|
|-----------------3--5--7-------------------|------------------------|
|-------------------------------------------|------------------------|
|
|                                             Gtr III
|                 |--3--|
|  E S S S S S S  S  S  S  S  S  S  S  S  S    Q   E  Q   E  E  E
|-------------------------------------------|------------------------|
|-------------------------------------------|------------------------|
|-------------------------------------------|------------------------|
|-12--------------------------------7--9-10-|--9--10--9--12-10--7----|
|-10-5-5-7-7-9-9-----------7--9-10----------|-10--10-10--14-12--9----|
|-----------------5--7--8-------------------|------------------------|
|
|                                             Gtr III
|                 |--3--|
|  E S S S S S S  S  S  S  S  S  S  S  S  S    Q   E  Q   E  E  E
|-------------------------------------------|------------------------|
|-------------------------------------------|------------------------|
|-----------------------------------5--7--9-|------------12-11--7----|
|--5-4-4-5-5-7-7-----------5--7--9----------|--9--10--9--------------|
|--5--------------3--5--7-------------------|--7---7--7--10--9--5----|
|--3----------------------------------------|------------------------|


  Gtr IV
   S
|-24------------------------------|---------------------------------|
|-17------------------------------|---------------------------------|
|-16------------------------------|---------------------------------|
|---------------------------------|---------------------------------|
|---------------------------------|---------------------------------|
|--0------------------------------|---------------------------------|
|
| GtrGtr I
|  E S S S S  S  S  E S S S S S S    E S S S S  S  S  E S S S S S S
|---------------------------------|---------------------------------|
|---------------------------------|---------------------------------|
|---------------------------------|---------------------------------|
|--9-5-5-5-5--9--9--9-5-5-5-5-5---|-10-5-5-5-5-10-10-10-5-5-5-5-5-5-|
|-10-7-7-7-7-10-10-10-7-7-7-7-7-7-|-10-7-7-7-7-10-10-10-7-7-7-7-7-7-|
|---------------------------------|---------------------------------|
|
| GtrGtr I
|  E S S S S  S  S  E S S S S S S    E S S S S  S  S  E S S S S S S
|---------------------------------|---------------------------------|
|---------------------------------|---------------------------------|
|--4----------4--4--4-------------|---------------------------------|
|--2----------2--2--2-------------|--2----------2--2--2-------------|
|--2----------2--2--2-------------|--3----------3--3--3-------------|
|--0-0-0-0-0--0--0--0-0-0-0-0-0-0-|--3-0-0-0-0--3--3--3-0-0-0-0-0-0-|


                  |--3--|
   H              S  S  S  S  S  S  S  S  S    Q   E  Q   E  E  E
|----------------------------------17-19-22-|-15--14-10--14-15-19----|
|----------------10-12-13-17-19-20----------|------------------------|
|-----------------------------------5--7--9-|-12--11--7--11-12-16----|
|--------------------------5--7--9----------|------------------------|
|-----------------3--5--7-------------------|------------------------|
|-------------------------------------------|------------------------|
|
|                                             Gtr III
|                 |--3--|
|  E S S S S S S  S  S  S  S  S  S  S  S  S    Q   E  Q   E  E  E
|-------------------------------------------|------------------------|
|-------------------------------------------|------------------------|
|-------------------------------------------|------------------------|
|-12--------------------------------7--9-10-|--9--10--9--12-10--7----|
|-10-5-5-7-7-9-9-----------7--9-10----------|-10--10-10--14-12--9----|
|-----------------5--7--8-------------------|------------------------|
|
|                                             Gtr III
|                 |--3--|
|  E S S S S S S  S  S  S  S  S  S  S  S  S    Q   E  Q   E  E  E
|-------------------------------------------|------------------------|
|-------------------------------------------|------------------------|
|-----------------------------------5--7--9-|------------12-11--7----|
|--5-4-4-5-5-7-7-----------5--7--9----------|--9--10--9--------------|
|--5--------------3--5--7-------------------|--7---7--7--10--9--5----|
|--3----------------------------------------|------------------------|


 4/4
  Gtr II
   H..                                 H..
|-17--------------------------------|-13----------------------------------|
|-17--------------------------------|-10----------------------------------|
|-17--------------------------------|-10----------------------------------|
|--7--------------------------------|-------------------------------------|
|-----------------------------------|-------------------------------------|
|-----------------------------------|-------------------------------------|
|
| Gtr IGtr I
|  E   S S S S  S  S  E S S S S S S    E   S S S S  S  S  E   S S S S S S
|-----------------------------------|-------------------------------------|
|-----------------------------------|-------------------------------------|
|--9---5-5-5-5--9--9--9-5-5-5-5-5-5-|-10---5-5-5-5-10-10-10---5-5-5-5-5-5-|
|-10---7-7-7-7-10-10-10-7-7-7-7-7-7-|-10---7-7-7-7-10-10-10---7-7-7-7-7-7-|
|--0--------------------------------|-------------------------------------|
|-----------------------------------|-------------------------------------|
|
| Gtr IGtr I
|  E   S S S S  S  S  E S S S S S S    E   S S S S  S  S  S S S S S S S S
|--5------------5--5--5-------------|-------------------------------------|
|--5------------5--5--5-------------|-------------------------------------|
|--5------------5--5--5-------------|--2------------2--2--2---------------|
|--7------------7--7--7-------------|--3------------3--3--3---------------|
|--7------------7--7--7-------------|--3------------3--3--3---------------|
|--5---5-5-5-5--5--5--5-5-5-5-5-5-5-|--1---1-1-1-1--1--1--1-1-1-1-1-1-1-1-|


   H..                                    W
|-12-----------------------------------|-----------------------|
|-10-----------------------------------|-----------------------|
|--5-----------------------------------|-----------------------|
|--------------------------------------|-----------------------|
|--------------------------------------|-----------------------|
|--------------------------------------|-----------------------|
|
|                                        Gtr III
|                  |-3-|
|  E   S S S S S S S S S S S  S S S  S    Q   E  Q   E  E  E
|--------------------------------------|-----------------------|
|--------------------------------------|-----------------------|
|-12----------------------------7-9-10-|--9--10--9--12-10--9---|
|-10---6-6-7-7-9-9-------7-9-10--------|-10--10-10--10-10-10---|
|------------------5-7-8---------------|-----------------------|
|--------------------------------------|-----------------------|
|
|                                        Gtr III
|                  |-3-|
|  E   S S S S S S S S S S S  S S S  S    Q   E  Q   E  E  E
|--------------------------------------|-----------------------|
|-------------------------------6-8-10-|-----------------------|
|--5---4-4-5-5-7-7-------5-7--9--------|--9--10--9---------0---|
|--5---------------3-5-7---------------|--7---7--7--10--9--0---|
|--3-----------------------------------|-----------------------|
|--------------------------------------|-------------8--7------|


 4/4
  Gtr II
   H..                                 H..
|--5--------------------------------|--1----------------------------------|
|--5--------------------------------|--1----------------------------------|
|--5--------------------------------|--2----------------------------------|
|-----------------------------------|--3----------------------------------|
|--0--------------------------------|-------------------------------------|
|-----------------------------------|-------------------------------------|
|
| Gtr IGtr I
|  E   S S S S  S  S  E S S S S S S    E   S S S S  S  S  E   S S S S S S
|-----------------------------------|-------------------------------------|
|-----------------------------------|-------------------------------------|
|--9---5-5-5-5--9--9--9-5-5-5-5-5-5-|-10---5-5-5---10-10-10---5-5-5-5-5-5-|
|-10---7-7-7-7-10-10-10-7-7-7-7-7-7-|-10---7-7-7-7-10-10-10---7-7-7-7-7-7-|
|--0--------------------------------|-------------------------------------|
|-----------------------------------|-------------------------------------|
|
| Gtr IGtr I
|  E   S S S S  S  S  E S S S S S S    E   S S S S  S  S  S S S S S S S S
|--5------------5--5--5-------------|-------------------------------------|
|--5------------5--5--5-------------|-------------------------------------|
|--5------------5--5--5-------------|--2------------2--2--2---------------|
|--7------------7--7--7-------------|--3------------3--3--3---------------|
|--7------------7--7--7-------------|--3------------3--3--3---------------|
|--5---5-5-5-5--5--5--5-5-5-5-5-5-5-|--1---1-1-1-1--1--1--1-1-1-1-1-1-1-1-|


   H..
|-12-----------------------------------|-----------------------|
|--8-----------------------------------|-----------------------|
|--------------------------------------|-----------------------|
|-10-----------------------------------|-----------------------|
|--------------------------------------|-----------------------|
|--------------------------------------|-----------------------|
|
|                                        Gtr III
|                  |-3-|
|  E   S S S S S S S S S S S  S S S  S    Q   E  Q   E  E  E
|--------------------------------------|-----------------------|
|--------------------------------------|-----------------------|
|-12----------------------------7-9-10-|--9--10--9--12-10--9---|
|-10---6-6-7-7-9-9-------7-9-10--------|-10--10-10--10-10-10---|
|------------------5-7-8---------------|-----------------------|
|--------------------------------------|-----------------------|
|
|                                        Gtr III
|                  |-3-|
|  E   S S S S S S S S S S S  S S S  S    Q   E  Q   E  E  E
|--------------------------------------|-----------------------|
|-------------------------------6-8-10-|-----------------------|
|--5---4-4-5-5-7-7-------5-7--9--------|--9--10--9---------0---|
|--5---------------3-5-7---------------|--7---7--7--10--9--0---|
|--3-----------------------------------|-----------------------|
|--------------------------------------|-------------8--7------|


 4/4
  Gtr II
   H.                              H.
|-24----------------------------|-20------------------------------|
|-------------------------------|---------------------------------|
|-------------------------------|---------------------------------|
|-------------------------------|---------------------------------|
|-------------------------------|---------------------------------|
|-------------------------------|---------------------------------|
|
| Gtr Gtr I   Gtr IIGtr I         Gtr Gtr I   Gtr III Gtr I
|  E  S S S S S S E S S S S S S    E  S S S S S S E   S S S S S S
|-------------------------------|---------------------------------|
|-------------------------------|---------------------------------|
|-------------------------------|---------------------------------|
|--6----------6-6-6-------------|--7----------7-7-7---------------|
|--7----------7-7-7-------------|--8----------8-8-8---------------|
|--0--0-0-0-0-------0-0-0-0-0-0-|-----0-0-0-0---------0-0-0-0-0-0-|
|
| Gtr I
|  E  S S S S S S E S S S S S S    E  S S S S S S S S S S S S S
|-------------------------------|---------------------------------|
|-------------------------------|---------------------------------|
|-------------------------------|---------------------------------|
|-------------------------------|---------------------------------|
|--2----------2-2-2-------------|--3----------3-3-3---------------|
|--0--0-0-0-0-0-0-0-0-0-0-0-0-0-|--1--0-0-0-0-1-1-1-0-0-0-0-0-0---|


   H.                                       Q..     H
|-19-------------------------------------|-16------17-----------------------|
|----------------------------------------|----------------------------------|
|----------------------------------------|----------------------------------|
|----------------------------------------|----------------------------------|
|----------------------------------------|----------------------------------|
|----------------------------------------|----------------------------------|
|
| Gtr Gtr I                                Gtr III
|                 |-3--|
|  E  S S S S S S S S  S S  S  S S  S  S    Q    Q     E S S  S  S  S  S
|----------------------------------------|----------------------------------|
|----------------------------------------|----------------------------------|
|----------------------------------------|----------------------------10----|
|--9-----------------------------6--7--9-|-------6-----9-9-9-10-10-12-------|
|-10---------------------5--7--8---------|--7-------------------------------|
|-----0-0-0-0-0-0-4-5--7-----------------|----------------------------------|
|
|                                          Gtr III
|                 |-3--|
|  E  S S S S S S S S  S S  S  S S  S  S    Q    Q     E S S  S  S  S  S
|----------------------------------------|----------------------------------|
|----------------------------------------|----------------------------10----|
|----------------------------------------|------------10-7-7--9--9-10-------|
|--------------------------------9-10-12-|-------9--------------------------|
|--5---------------------8-11-12---------|-11-------------------------------|
|--3--0-0-0-0-0-0-7-8-10-----------------|----------------------------------|


 4/4
   H..                              H..
|-16-----------------------------|-13-------------------------------|
|-17-----------------------------|-10-------------------------------|
|--------------------------------|----------------------------------|
|--------------------------------|----------------------------------|
|--------------------------------|----------------------------------|
|--------------------------------|----------------------------------|
|
| Gtr IGtr I   Gtr IIGtr I         Gtr IGtr I   Gtr III Gtr I
|  E   S S S S S S E S S S S S S    E   S S S S S S E   S S S S S S
|--------------------------------|----------------------------------|
|--------------------------------|----------------------------------|
|--------------------------------|----------------------------------|
|--6-----------6-6-6-------------|--7-----------7-7-7---------------|
|--7-----------7-7-7-------------|--8-----------8-8-8---------------|
|--0---0-0-0-0-------0-0-0-0-0-0-|------0-0-0-0---------0-0-0-0-0-0-|
|
| Gtr IGtr I   Gtr IIGtr I         Gtr IGtr I   Gtr IIGtr I
|  E   S S S S S S E S S S S S S    E   S S S S S S S S S S S S S
|--------------------------------|----------------------------------|
|--------------------------------|----------------------------------|
|--------------------------------|----------------------------------|
|--------------------------------|----------------------------------|
|--2-----------2-2-2-------------|--3-----------3-3-3---------------|
|--0---0-0-0-0-0-0-0-0-0-0-0-0-0-|--1---0-0-0-0-1-1-1-0-0-0-0-0-0---|


   H..                                       Q..     H
|-19--------------------------------------|-16------17-----------------------|
|-15--------------------------------------|----------------------------------|
|-----------------------------------------|----------------------------------|
|-----------------------------------------|----------------------------------|
|-----------------------------------------|----------------------------------|
|-----------------------------------------|----------------------------------|
|
| Gtr IGtr I                                Gtr III
|                  |-3--|
|  E   S S S S S S S S  S S  S  S S  S  S    Q    Q     E S S  S  S  S  S
|-----------------------------------------|----------------------------------|
|-----------------------------------------|----------------------------------|
|-----------------------------------------|----------------------------10----|
|--9------------------------------6--7--9-|-------6-----9-9-9-10-10-12-------|
|-10----------------------5--7--8---------|--7-------------------------------|
|------0-0-0-0-0-0-4-5--7-----------------|----------------------------------|
|
| Gtr IGtr I                                Gtr III
|                  |-3--|
|  E   S S S S S S S S  S S  S  S S  S  S    Q    Q     E S S  S  S  S  S
|-----------------------------------------|----------------------------------|
|-----------------------------------------|----------------------------10----|
|-----------------------------------------|------------10-7-7--9--9-10-------|
|---------------------------------9-10-12-|-------9--------------------------|
|--5----------------------8-11-12---------|-11-------------------------------|
|--3---0-0-0-0-0-0-7-8-10-----------------|----------------------------------|


                                 Q=58
  Gtr II
   H..       E    H..        E    W           H     H
|-12-----------|-10------------|--8--------|-(8)---------|
|--0-----------|--8------------|--8--------|-(8)---------|
|--9-----------|--9------------|-10--------|-10----------|
|-18-----------|--9------------|-10--------|-10----------|
|--7-----------|--7------------|--8--------|-(8)---------|
|-20-----------|---------------|-----------|-------------|
|
| Gtr II
|  H..       E    H.       E      W           H
|--------------|--0------------|-----------|-------------|
|--------------|--0------------|-----------|-------------|
|--------------|--9------------|--2--------|--2----------|
|--2-----------|--5------------|--3--------|--3----------|
|--2-----------|--7------------|-----------|-------------|
|--0-----------|--0------------|--1--------|--1----------|


  Q=58
  <
  W          W           W         W
|-1--------|-5--------|--3--------------|
|-1--------|-6--------|--5--------------|
|-2--------|-3--------|-(3)-------------|
|-3--------|----------|-----------------|
|----------|-1--------|--3--------------|
|-1--------|----------|-12--------------|



Duration Legend
---------------
W - whole; H - half; Q - quarter; E - 8th; S - 16th; T - 32nd; X - 64th; a - acciaccatura
+ - note tied to previous; . - note dotted; .. - note double dotted
Uncapitalized letters represent notes that are staccato (1/2 duration)
Irregular groupings are notated above the duration line
Duration letters will always appear directly above the note/fret number it represents the
duration for.  Duration letters with no fret number below them represent rests.  Multi-
bar rests are notated in the form Wxn, where n is the number of bars to rest for.  Low
melody durations appear below the staff

Tablature Legend
----------------
 h   - hammer-on
 p   - pull-off
 b   - bend
 pb  - pre-bend
 r   - bend release (if no number after the r, then release immediately)
 /\  - slide into or out of (from/to "nowhere")
 s   - legato slide
 S   - shift slide
<n> - natural harmonic
[n]  - artificial harmonic
n(n) - tapped harmonic
 ~   - vibrato
 tr  - trill
 T   - tap
 TP  - trem. picking
 PM  - palm muting
\n/  - tremolo bar dip; n = amount to dip
 \n  - tremolo bar down
 n/  - tremolo bar up
/n\  - tremolo bar inverted dip
 =   - hold bend; also acts as connecting device for hammers/pulls
 <> - volume swell (louder/softer)
 x   - on rhythm slash represents muted slash
 o   - on rhythm slash represents single note slash

Misc Legend
-----------
 |  - bar
||  - double bar
||o - repeat start
o|| - repeat end
*|  - double bar (ending)
 :  - bar (freetime)
 $  - Segno
 &  - Coda
Tempo markers - <E/E./Q/Q./H/H.> = BPM(8/16=s8/s16), where s8 = swing 8ths, s16 = swing 16ths


** Generated using Power Tab Editor by Brad Larsen: The Official Power Tab Web Site