#----------------------------------PLEASE NOTE---------------------------------#
#This file is the author's own work and represents their interpretation of the #
#song. You may only use this file for private study, scholarship, or research. #
#------------------------------------------------------------------------------#

UNLEASH THE DRAGON
As recorded by Blood Vacuum
(From the 2005 Album TEMPORAL STORM)


Words by MC Music by M.Calestino
Arranged by MC


Gtr I (C G C F A D) - 'rhythm'
Gtr II (C G C F A D) - 'organ'
Gtr III (C G C F A D) - 'harpischord'
Gtr IV (C G C F A D) - 'piano'
Gtr V (D G C F A D) - 'strings'

  Q=74
 3/4
  Gtr V                                  Gtrs III, IV
                                          |--3--|  |-3-| |-3-|  |-3-|  |-3--|
  Q        Q       Q        Q          E  S  S  S  S S S S S S  S S S  S  S S
|-----------------------------------|-----------------------------------------|
|---------10-------8-------11-------|-14--------------------------------------|
|-7-------10-------9-------12-------|-14--------------------------------------|
|-7---------------------------------|--------------------8-7-5-10-8-7-12-10-8-|
|-----------------------------------|----12-12-12-10-8-7----------------------|
|-----------------------------------|-----------------------------------------|
|
| Gtr I
|   |-3-|    |-3-|   |-3-|    |-3-|       |--3--|  |-3-| |-3-|  |-3-|  |-3--|
| E S S S  E S S S E S S S  E S S S    E  S  S  S  S S S S S S  S S S  S  S S
|-----------------------------------|-----------------------------------------|
|-----------------------------------|-----------------------------------------|
|---------10-------9--------7-------|--6------------------------2-0----3--2-0-|
|-0-0-0-0--7-0-0-0-5-0-0-0--3-0-0-0-|--2--0--0--0--3-2-0-5-3-2------3---------|
|-0---------------------------------|-----------------------------------------|
|-0---------------------------------|-----------------------------------------|
|
| Gtr II
|   |-3-|    |-3-|   |-3-|    |-3-|       |--3--|  |-3-| |-3-|  |-3-|  |-3--|
| E S S S  E S S S E S S S  E S S S    E  S  S  S  S S S S S S  S S S  S  S S
|-----------------------------------|-----------------------------------------|
|-----------------------------------|-----------------------------------------|
|-----------------------------------|--2------------------------------------0-|
|-0--------0-------0--------0-------|--2--2--2--2--3-3-3--------2-2-2--3--3-3-|
|-0--------0-------0--------0-------|--0--0--0--0--1-1-1-5-5-5--3-3-3--3--3-3-|
|-0-0-0-0--0-0-0-0-0-0-0-0--0-0-0-0-|--------------------5-5-5----------------|


  Gtr V
  Q        Q       Q        Q          E
|-----------------------------------|---------------------------|
|---------10-------8-------11-------|-14------------------------|
|-7-------10-------9-------12-------|-14------------------------|
|-7---------------------------------|---------------------------|
|-----------------------------------|---------------------------|
|-----------------------------------|---------------------------|
|
|   |-3-|    |-3-|   |-3-|    |-3-|      |-3-| |-3-| |-3-|
| E S S S  E S S S E S S S  E S S S    E S S S S S S S S S  E
|-----------------------------------|-----------------------0---|
|-----------------------------------|----------------3-5-6-(6)--|
|---------10-------9--------7-------|--6-------2-3-5------------|
|-0-0-0-0--7-0-0-0-5-0-0-0--3-0-0-0-|--2-2-3-5------------------|
|-0---------------------------------|---------------------------|
|-0---------------------------------|---------------------------|
|
|   |-3-|    |-3-|   |-3-|    |-3-|
| E S S S  E S S S E S S S  E S S S    E
|-----------------------------------|---------------------------|
|-----------------------------------|---------------------------|
|-----------------------------------|--2------------------------|
|-0--------0-------0--------0-------|--2------------------------|
|-0--------0-------0--------0-------|--0------------------------|
|-0-0-0-0--0-0-0-0-0-0-0-0--0-0-0-0-|---------------------------|


  Q=74
 3/4
  Gtr V                                  Gtrs III, IV
                                          |--3--|  |-3-| |-3-|  |-3-|  |-3--|
  Q        Q       Q        Q          E  S  S  S  S S S S S S  S S S  S  S S
|-----------------------------------|-----------------------------------------|
|---------10-------8-------11-------|-14--------------------------------------|
|-7-------10-------9-------12-------|-14--------------------------------------|
|-7---------------------------------|--------------------8-7-5-10-8-7-12-10-8-|
|-----------------------------------|----12-12-12-10-8-7----------------------|
|-----------------------------------|-----------------------------------------|
|
| Gtr I
|   |-3-|    |-3-|   |-3-|    |-3-|       |--3--|  |-3-| |-3-|  |-3-|  |-3--|
| E S S S  E S S S E S S S  E S S S    E  S  S  S  S S S S S S  S S S  S  S S
|-----------------------------------|-----------------------------------------|
|-----------------------------------|-----------------------------------------|
|---------10-------9--------7-------|--6------------------------2-0----3--2-0-|
|-0-0-0-0--7-0-0-0-5-0-0-0--3-0-0-0-|--2--0--0--0--3-2-0-5-3-2------3---------|
|-0---------------------------------|-----------------------------------------|
|-0---------------------------------|-----------------------------------------|
|
| Gtr II
|   |-3-|    |-3-|   |-3-|    |-3-|       |--3--|  |-3-| |-3-|  |-3-|  |-3--|
| E S S S  E S S S E S S S  E S S S    E  S  S  S  S S S S S S  S S S  S  S S
|-----------------------------------|-----------------------------------------|
|-----------------------------------|-----------------------------------------|
|-----------------------------------|--2------------------------------------0-|
|-0--------0-------0--------0-------|--2--2--2--2--3-3-3--------2-2-2--3--3-3-|
|-0--------0-------0--------0-------|--0--0--0--0--1-1-1-5-5-5--3-3-3--3--3-3-|
|-0-0-0-0--0-0-0-0-0-0-0-0--0-0-0-0-|--------------------5-5-5----------------|


  Gtr V
  Q        Q       Q        Q          E
|-----------------------------------|---------------------------|
|---------10-------8-------11-------|-14------------------------|
|-7-------10-------9-------12-------|-14------------------------|
|-7---------------------------------|---------------------------|
|-----------------------------------|---------------------------|
|-----------------------------------|---------------------------|
|
|   |-3-|    |-3-|   |-3-|    |-3-|      |-3-| |-3-| |-3-|
| E S S S  E S S S E S S S  E S S S    E S S S S S S S S S  E
|-----------------------------------|-----------------------0---|
|-----------------------------------|----------------3-5-6-(6)--|
|---------10-------9--------7-------|--6-------2-3-5------------|
|-0-0-0-0--7-0-0-0-5-0-0-0--3-0-0-0-|--2-2-3-5------------------|
|-0---------------------------------|---------------------------|
|-0---------------------------------|---------------------------|
|
|   |-3-|    |-3-|   |-3-|    |-3-|
| E S S S  E S S S E S S S  E S S S    E
|-----------------------------------|---------------------------|
|-----------------------------------|---------------------------|
|-----------------------------------|--2------------------------|
|-0--------0-------0--------0-------|--2------------------------|
|-0--------0-------0--------0-------|--0------------------------|
|-0-0-0-0--0-0-0-0-0-0-0-0--0-0-0-0-|---------------------------|


  Q=58
  Gtr IV
  |-3-| |-3-| |-3-| |-3-|    |-3--| |-3-| |-3-| |-3-|
  E E E E E E E E E E E E    E  E E E E E E E E E E E
|-------------------------|---------------------------|
|-------------------------|---------------------------|
|-------------------------|---------------------------|
|-------------------2-0-2-|---------3-2-3-------5-3-5-|
|-------5-4-5-------------|---------------------------|
|-0-2-3-------0-2-3-------|--0--2-3-------0-2-3-------|
|
| Gtr II
| W                         +W
|-------------------------|---------------------------|
|-3-----------------------|-(3)-----------------------|
|-2-----------------------|-(2)-----------------------|
|-0-----------------------|-(0)-----------------------|
|-0-----------------------|-(0)-----------------------|
|-0-----------------------|-(0)-----------------------|


  |-3-| |-3-| |-3-| |-3-|    |-3--| |-3-| |-3-|
  E E E E E E E E E E E E    E  E E E E E E E E H
|-------------------------|--------------------------|
|-------------------------|--------------------------|
|-------------------------|--------------------------|
|-------------------2-0-2-|--5--3-2-0----------------|
|-------5-4-5-------------|-----------4-1-0----------|
|-0-2-3-------0-2-3-------|-----------------5-3-2----|
|
| W                         +W
|-------------------------|--------------------------|
|-3-----------------------|-(3)----------------------|
|-2-----------------------|-(2)----------------------|
|-0-----------------------|-(0)----------------------|
|-0-----------------------|-(0)----------------------|
|-0-----------------------|-(0)----------------------|


  Q=74
  |-3-| |-3-| |-3-| |-3-|   |-3-| |-3-| |-3-| |--3--|
  S S S S S S S S S S S S   S S S S S S S S S E   E E
|-------------------------|---------------------------|
|-------------------------|---------------------------|
|-------------------------|-------------------3---2-3-|
|-------------------5-3-5-|-------7-5-7---------------|
|-------8-7-8-------------|---------------------------|
|-3-5-7-------3-5-7-------|-3-5-7-------3-5-7---------|
|
| Gtr IV
| |-3-| |-3-| |-3-| |-3-|   |-3-| |-3-| |-3-| |-3-|
| S S S S S S S S S S S S   S S S S S S S S S S S S
|-------------------------|---------------------------|
|-------------------------|---------------------------|
|-------------------------|---------------------------|
|-------------------2-0-2-|-------3-2-3-------5-3-5---|
|-------5-4-5-------------|---------------------------|
|-0-2-3-------0-2-3-------|-0-2-3-------0-2-3---------|
|
| Gtr I
|-------------------------|---------------------------|
|-------------------------|---------------------------|
|-------------------------|---------------------------|
|-------------------------|---------------------------|
|-------------------------|---------------------------|
|-------------------------|---------------------------|


  |-3-| |-3-| |-3-| |-3-|
  S S S S S S S S S S S S
|-------------------------|------------------------|
|-------------------------|------------------------|
|-------------------------|------------------------|
|-------------------5-3-5-|------------------------|
|-------8-7-8-------------|------------------------|
|-3-5-7-------3-5-7-------|------------------------|
|
| |-3-| |-3-| |-3-| |-3-|   |-3-| |-3-| |-3-|
| S S S S S S S S S S S S   S S S S S S S S S E
|-------------------------|------------------------|
|-------------------------|------------------------|
|-------------------------|------------------------|
|-------------------2-0-2-|-5-3-2-0----------------|
|-------5-4-5-------------|---------4-1-0----------|
|-0-2-3-------0-2-3-------|---------------5-3-2----|
|
|-------------------------|------------------------|
|-------------------------|------------------------|
|-------------------------|------------------------|
|-------------------------|------------------------|
|-------------------------|------------------------|
|-------------------------|------------------------|


  Q=74
  Gtr IV
  |-3-| |-3-| |-3-| |-3-|   |-3-| |-3-| |-3-| |-3-|
  S S S S S S S S S S S S   S S S S S S S S S S S S
|-------------------------|-------------------------|
|-------------------------|-------------------------|
|-------------------------|-------------------------|
|-------------------2-0-2-|-------3-2-3-------5-3-5-|
|-------5-4-5-------------|-------------------------|
|-0-2-3-------0-2-3-------|-0-2-3-------0-2-3-------|
|
| Gtr I
| |-3-| |-3-| |-3-| |-3-|   |-3-| |-3-| |-3-| |-3-|
| S S S S S S S S S S S S   S S S S S S S S S S S S
|-------------------------|-------------------------|
|-------------------------|-------------------------|
|-------------------------|-------------------------|
|-------------------------|-------------------------|
|-------------------------|-------------------------|
|-0-0-0-0-0-0-0-0-0-0-0-0-|-0-0-0-0-0-0-0-0-0-0-0-0-|


  |-3-| |-3-| |-3-| |-3-|   |-3-| |-3-| |-3-|
  S S S S S S S S S S S S   S S S S S S S S S E
|-------------------------|----------------------------|
|-------------------------|----------------------------|
|-------------------------|----------------------------|
|-------------------2-0-2-|-5-3-2-0--------------------|
|-------5-4-5-------------|---------4-1-0--------------|
|-0-2-3-------0-2-3-------|---------------5-3-2--------|
|
| |-3-| |-3-| |-3-| |-3-|   |-3-| |-3-| |-3-| |-3-|
| S S S S S S S S S S S S   S S S S S S S S S S S S
|-------------------------|----------------------------|
|-------------------------|----------------------------|
|-------------------------|----------------------------|
|-------------------------|----------------------------|
|-------------------------|-------------4-4-4----------|
|-0-0-0-0-0-0-0-0-0-0-0-0-|-5-5-5-5-5-5-------2-2-2----|


  Q=74
  Gtr II
   |--3--|  |--3--|  |--3--|  |--3--|
   S  S  S  S  S  S  S  S  S  S  S  S
|-------------------------------------|
|-------------------------------------|
|-------------------12-------12-14-15-|
|-12-14-15-12-14-15----14-15----------|
|-------------------------------------|
|-------------------------------------|


   |--3--|  |--3---|  |--3--|  |--3--|    |--3--|  |--3--|
   S  S  S  S   S  S  S  S  S  S  S  S    S  S  S  S  S  S  Q
|--------------------17p13----18p15----|-20p17----18-15----22--|
|----------14--15-17-------15-------17-|-------17-------17-----|
|-12-14-15-----------------------------|-----------------------|
|--------------------------------------|-----------------------|
|--------------------------------------|-----------------------|
|--------------------------------------|-----------------------|


  Q=74
 3/4
  Gtr V                                  Gtrs III, IV
                                          |--3--|  |-3-| |-3-|  |-3-|  |-3--|
  Q        Q       Q        Q          E  S  S  S  S S S S S S  S S S  S  S S
|-----------------------------------|-----------------------------------------|
|---------10-------8-------11-------|-14--------------------------------------|
|-7-------10-------9-------12-------|-14--------------------------------------|
|-7---------------------------------|--------------------8-7-5-10-8-7-12-10-8-|
|-----------------------------------|----12-12-12-10-8-7----------------------|
|-----------------------------------|-----------------------------------------|
|
| Gtr I
|   |-3-|    |-3-|   |-3-|    |-3-|       |--3--|  |-3-| |-3-|  |-3-|  |-3--|
| E S S S  E S S S E S S S  E S S S    E  S  S  S  S S S S S S  S S S  S  S S
|-----------------------------------|-----------------------------------------|
|-----------------------------------|-----------------------------------------|
|---------10-------9--------7-------|--6------------------------2-0----3--2-0-|
|-0-0-0-0--7-0-0-0-5-0-0-0--3-0-0-0-|--2--0--0--0--3-2-0-5-3-2------3---------|
|-0---------------------------------|-----------------------------------------|
|-0---------------------------------|-----------------------------------------|
|
| Gtr II
|   |-3-|    |-3-|   |-3-|    |-3-|       |--3--|  |-3-| |-3-|  |-3-|  |-3--|
| E S S S  E S S S E S S S  E S S S    E  S  S  S  S S S S S S  S S S  S  S S
|-----------------------------------|-----------------------------------------|
|-----------------------------------|-----------------------------------------|
|-----------------------------------|--2------------------------------------0-|
|-0--------0-------0--------0-------|--2--2--2--2--3-3-3--------2-2-2--3--3-3-|
|-0--------0-------0--------0-------|--0--0--0--0--1-1-1-5-5-5--3-3-3--3--3-3-|
|-0-0-0-0--0-0-0-0-0-0-0-0--0-0-0-0-|--------------------5-5-5----------------|


  Gtr V
  Q        Q       Q        Q          E
|-----------------------------------|---------------------------|
|---------10-------8-------11-------|-14------------------------|
|-7-------10-------9-------12-------|-14------------------------|
|-7---------------------------------|---------------------------|
|-----------------------------------|---------------------------|
|-----------------------------------|---------------------------|
|
|   |-3-|    |-3-|   |-3-|    |-3-|      |-3-| |-3-| |-3-|
| E S S S  E S S S E S S S  E S S S    E S S S S S S S S S  E
|-----------------------------------|-----------------------0---|
|-----------------------------------|----------------3-5-6-(6)--|
|---------10-------9--------7-------|--6-------2-3-5------------|
|-0-0-0-0--7-0-0-0-5-0-0-0--3-0-0-0-|--2-2-3-5------------------|
|-0---------------------------------|---------------------------|
|-0---------------------------------|---------------------------|
|
|   |-3-|    |-3-|   |-3-|    |-3-|
| E S S S  E S S S E S S S  E S S S    E
|-----------------------------------|---------------------------|
|-----------------------------------|---------------------------|
|-----------------------------------|--2------------------------|
|-0--------0-------0--------0-------|--2------------------------|
|-0--------0-------0--------0-------|--0------------------------|
|-0-0-0-0--0-0-0-0-0-0-0-0--0-0-0-0-|---------------------------|


  Q=74
  Gtr V                                  Gtrs III, IV
                                          |--3--|  |-3-| |-3-|  |-3-|  |-3--|
  Q        Q       Q        Q          E  S  S  S  S S S S S S  S S S  S  S S
|-----------------------------------|-----------------------------------------|
|---------10-------8-------11-------|-14--------------------------------------|
|-7-------10-------9-------12-------|-14--------------------------------------|
|-7---------------------------------|--------------------8-7-5-10-8-7-12-10-8-|
|-----------------------------------|----12-12-12-10-8-7----------------------|
|-----------------------------------|-----------------------------------------|
|
| Gtr I
|   |-3-|    |-3-|   |-3-|    |-3-|       |--3--|  |-3-| |-3-|  |-3-|  |-3--|
| E S S S  E S S S E S S S  E S S S    E  S  S  S  S S S S S S  S S S  S  S S
|-----------------------------------|-----------------------------------------|
|-----------------------------------|-----------------------------------------|
|---------10-------9--------7-------|--6------------------------2-0----3--2-0-|
|-0-0-0-0--7-0-0-0-5-0-0-0--3-0-0-0-|--2--0--0--0--3-2-0-5-3-2------3---------|
|-0---------------------------------|-----------------------------------------|
|-0---------------------------------|-----------------------------------------|
|
| Gtr I
|   |-3-|    |-3-|   |-3-|    |-3-|       |--3--|  |-3-| |-3-|  |-3-|  |-3--|
| E S S S  E S S S E S S S  E S S S    E  S  S  S  S S S S S S  S S S  S  S S
|-----------------------------------|-----------------------------------------|
|-----------------------------------|-----------------------------------------|
|-----------------------------------|--2------------------------------------0-|
|-0--------0-------0--------0-------|--2--2--2--2--3-3-3--------2-2-2--3--3-3-|
|-0--------0-------0--------0-------|--0--0--0--0--1-1-1-5-5-5--3-3-3--3--3-3-|
|-0-0-0-0--0-0-0-0-0-0-0-0--0-0-0-0-|--------------------5-5-5----------------|


  Gtr V
  Q        Q       Q        Q          E
|-----------------------------------|-----------------------------|
|---------10-------8-------11-------|-14--------------------------|
|-7-------10-------9-------12-------|-14--------------------------|
|-7---------------------------------|-----------------------------|
|-----------------------------------|-----------------------------|
|-----------------------------------|-----------------------------|
|
|   |-3-|    |-3-|   |-3-|    |-3-|      |-3-| |-3-| |-3-|
| E S S S  E S S S E S S S  E S S S    E S S S S S S S S S  E
|-----------------------------------|-----------------------0-----|
|-----------------------------------|----------------3-5-6-(6)----|
|---------10-------9--------7-------|--6-------2-3-5--------------|
|-0-0-0-0--7-0-0-0-5-0-0-0--3-0-0-0-|--2-2-3-5--------------------|
|-0---------------------------------|-----------------------------|
|-0---------------------------------|-----------------------------|
|
|   |-3-|    |-3-|   |-3-|    |-3-|
| E S S S  E S S S E S S S  E S S S    E
|-----------------------------------|-----------------------------|
|-----------------------------------|-----------------------------|
|-----------------------------------|--2--------------------------|
|-0--------0-------0--------0-------|--2--------------------------|
|-0--------0-------0--------0-------|--0--------------------------|
|-0-0-0-0--0-0-0-0-0-0-0-0--0-0-0-0-|-----------------------------|


  Q=74
  Gtr IV
  |-3-| |-3-| |-3-| |-3-|   |-3-| |-3-| |-3-| |-3-|
  S S S S S S S S S S S S   S S S S S S S S S S S S
|-------------------------|-------------------------|
|-------------------------|-------------------------|
|-------------------------|-------------------------|
|-------------------2-0-2-|-------3-2-3-------5-3-5-|
|-------5-4-5-------------|-------------------------|
|-0-2-3-------0-2-3-------|-0-2-3-------0-2-3-------|
|
| Gtr I
| |-3-| |-3-| |-3-| |-3-|   |-3-| |-3-| |-3-| |-3-|
| S S S S S S S S S S S S   S S S S S S S S S S S S
|-------------------------|-------------------------|
|-------------------------|-------------------------|
|-------------------------|-------------------------|
|-------------------------|-------------------------|
|-------------------------|-------------------------|
|-0-0-0-0-0-0-0-0-0-0-0-0-|-0-0-0-0-0-0-0-0-0-0-0-0-|


  |-3-| |-3-| |-3-| |-3-|   |-3-| |-3-| |-3-|
  S S S S S S S S S S S S   S S S S S S S S S E
|-------------------------|----------------------------|
|-------------------------|----------------------------|
|-------------------------|----------------------------|
|-------------------2-0-2-|-5-3-2-0--------------------|
|-------5-4-5-------------|---------4-1-0--------------|
|-0-2-3-------0-2-3-------|---------------5-3-2--------|
|
| |-3-| |-3-| |-3-| |-3-|   |-3-| |-3-| |-3-| |-3-|
| S S S S S S S S S S S S   S S S S S S S S S S S S
|-------------------------|----------------------------|
|-------------------------|----------------------------|
|-------------------------|----------------------------|
|-------------------------|----------------------------|
|-------------------------|-------------4-4-4----------|
|-0-0-0-0-0-0-0-0-0-0-0-0-|-5-5-5-5-5-5-------2-2-2----|


  Q=74
  Gtr IV
  |-3-| |-3-| |-3-| |-3-|   |-3-| |-3-| |-3-| |-3-|
  S S S S S S S S S S S S   S S S S S S S S S S S S
|-------------------------|-------------------------|
|-------------------------|-------------------------|
|-------------------------|-------------------------|
|-------------------2-0-2-|-------3-2-3-------5-3-5-|
|-------5-4-5-------------|-------------------------|
|-0-2-3-------0-2-3-------|-0-2-3-------0-2-3-------|
|
| Gtr I
| |-3-| |-3-| |-3-| |-3-|   |-3-| |-3-| |-3-| |-3-|
| S S S S S S S S S S S S   S S S S S S S S S S S S
|-------------------------|-------------------------|
|-------------------------|-------------------------|
|-------------------------|-------------------------|
|-------------------------|-------------------------|
|-------------------------|-------------------------|
|-0-0-0-0-0-0-0-0-0-0-0-0-|-0-0-0-0-0-0-0-0-0-0-0-0-|


  |-3-| |-3-| |-3-| |-3-|   |-3-| |-3-| |-3-|
  S S S S S S S S S S S S   S S S S S S S S S E
|-------------------------|----------------------------|
|-------------------------|----------------------------|
|-------------------------|----------------------------|
|-------------------2-0-2-|-5-3-2-0--------------------|
|-------5-4-5-------------|---------4-1-0--------------|
|-0-2-3-------0-2-3-------|---------------5-3-2--------|
|
| |-3-| |-3-| |-3-| |-3-|   |-3-| |-3-| |-3-| |-3-|
| S S S S S S S S S S S S   S S S S S S S S S S S S
|-------------------------|----------------------------|
|-------------------------|----------------------------|
|-------------------------|----------------------------|
|-------------------------|----------------------------|
|-------------------------|-------------4-4-4----------|
|-0-0-0-0-0-0-0-0-0-0-0-0-|-5-5-5-5-5-5-------2-2-2----|


  Q=58
  Gtr IV
  |-3-| |-3-| |-3-| |-3-|    |-3--| |-3-| |-3-| |-3-|
  E E E E E E E E E E E E    E  E E E E E E E E E E E
|-------------------------|---------------------------|
|-------------------------|---------------------------|
|-------------------------|---------------------------|
|-------------------2-0-2-|---------3-2-3-------5-3-5-|
|-------5-4-5-------------|---------------------------|
|-0-2-3-------0-2-3-------|--0--2-3-------0-2-3-------|
|
| Gtr II
| W                         +W
|-------------------------|---------------------------|
|-3-----------------------|-(3)-----------------------|
|-2-----------------------|-(2)-----------------------|
|-0-----------------------|-(0)-----------------------|
|-0-----------------------|-(0)-----------------------|
|-0-----------------------|-(0)-----------------------|


  |-3-| |-3-| |-3-| |-3-|    |-3--| |-3-| |-3-|
  E E E E E E E E E E E E    E  E E E E E E E E H
|-------------------------|--------------------------|
|-------------------------|--------------------------|
|-------------------------|--------------------------|
|-------------------2-0-2-|--5--3-2-0----------------|
|-------5-4-5-------------|-----------4-1-0----------|
|-0-2-3-------0-2-3-------|-----------------5-3-2----|
|
| W                         +W
|-------------------------|--------------------------|
|-3-----------------------|-(3)----------------------|
|-2-----------------------|-(2)----------------------|
|-0-----------------------|-(0)----------------------|
|-0-----------------------|-(0)----------------------|
|-0-----------------------|-(0)----------------------|


  Q=118
 4/4
  E E E E E E E  E   E E E E E E S S E   E E E E E E E  E   E E E E E E S S E
|------------------|-------------------|------------------|--------------------|
|------------------|-------------------|------------------|--------------------|
|------------------|-------------------|------------------|--------------------|
|-------7----------|-------------------|-------7----------|--------------------|
|-----8-------8-10-|-------8-----7-5-3-|-----8-------8-10-|-------8-----7-5-3--|
|-0-7-----0-7------|-0-7-8---3-5-------|-0-7-----0-7------|-0-7-8---3-5--------|


  Q=118
 4/4
  Gtr I
  E E E E E E E  E   E E E E E E S S E   E E E E E E E  E   E E E E E E S S E
|------------------|-------------------|------------------|--------------------|
|------------------|-------------------|------------------|--------------------|
|-------5----------|-------------------|-------5----------|--------------------|
|-----7-------7--8-|-------8-----5-3-2-|-----7-------7--8-|-------8-----5-3-2--|
|-0-5-----0-5------|-0-5-7---1-3-------|-0-5-----0-5------|-0-5-7---1-3--------|
|------------------|-------------------|------------------|--------------------|
|
| Gtr I
| E E E E E E E  E   E E E E E E S S E   E E E E E E E  E   E E E E E E S S E
|------------------|-------------------|------------------|--------------------|
|------------------|-------------------|------------------|--------------------|
|------------------|-------------------|------------------|--------------------|
|-------7----------|-------------------|-------7----------|--------------------|
|-----8-------8-10-|-------8-----7-5-3-|-----8-------8-10-|-------8-----7-5-3--|
|-0-7-----0-7------|-0-7-8---3-5-------|-0-7-----0-7------|-0-7-8---3-5--------|


  E E E E E E E E   E E E  E  E E  S  S E
|-----------------|-----------------------|
|-----------------|-----------------------|
|-----------------|-----------------------|
|-------7-----7-8-|-----7--8----7-10--8-7-|
|-0-1-5---3-5-----|-3-5-------7-----------|
|-----------------|-----------------------|
|
| E E E E E E E E   E E E  E  E E  S  S E
|-----------------|-----------------------|
|-----------------|-----------------------|
|-----------------|-----------------------|
|---------------5-|-----------------------|
|-------8-----8---|-----8-10----8-12-10-8-|
|-0-5-8---7-8-----|-7-8------10-----------|


  E E E  E E E E E   E E E E  S S  S  S  E E
|------------------|--------------------------|
|------------------|---------10-8-------10-8--|
|--------9-------7-|-------2------10--9-10-9--|
|-----7--------7---|--------------------------|
|-0-5------0-5-----|-1-3-5--------------------|
|------------------|--------------------------|
|
| E E E  E E E E E   E E E E  S S  S  S  E E
|------------------|--------------------------|
|------------------|--------------------------|
|------------------|--------------------------|
|-------10-------8-|---------10-8--7----10-8--|
|-----8--------8---|-------8---------10-12-7--|
|-0-8------0-8-----|-5-7-8--------------------|


  S S S S S S S S S S S S S S S S   S S S S S S S S S S S Q.
|---------------------------------|-----------------------------|
|-------------------------3-1-----|-5-3-----6-5-----8-6---------|
|-2-0-----3-2-0---5-3-2-0-----3-2-|-----5-3-----7-5-----9-7-----|
|-----3-2-------3-----------------|-----------------------------|
|---------------------------------|-----------------------------|
|---------------------------------|-----------------------------|
|
| S S S S S S S S S S S S S S S S   S S S S S S S S S S S Q.
|---------------------------------|-----------------------------|
|---------------------------------|---------3-1-----5-3---------|
|-----------------2-0-----3-2-0---|-5-3-2-0-----3-2-----5-3-----|
|-3-2-0---5-3-2-0-----3-2-------3-|-----------------------------|
|-------3-------------------------|-----------------------------|
|---------------------------------|-----------------------------|


  E S S E E E E E  E   S S S S S S S S S S S S S S S S
|--------------------|---------------------------------|
|--------------------|-------------------------3-1-----|
|-7-------9---5---10-|-2-0-----3-2-0---5-3-2-0-----3-2-|
|--------------------|-----3-2-------3-----------------|
|-5-------7---3----8-|---------------------------------|
|---0-0-0---0---0----|---------------------------------|
|
| E S S E E E E E  E   S S S S S S S S S S S S S S S S
|--------------------|---------------------------------|
|--------------------|---------------------------------|
|--------------------|-----------------2-0-----3-2-0---|
|-3-------5---2----3-|-3-2-0---5-3-2-0-----3-2-------3-|
|-5-------7---3----5-|-------3-------------------------|
|---0-0-0---0---0----|---------------------------------|


  E S S E E E E E  E   S S S S S S S S  S S  S S  E  E
|--------------------|------------------------------------|
|--------------------|------------------------------------|
|-7-------9---5---10-|-------0-3-6-3----9-6---------------|
|--------------------|---------------5-------8-5----------|
|-5-------7---3----8-|-0-1-4----------------------7--8----|
|---0-0-0---0---0----|------------------------------------|
|
| E S S E E E E E  E   S S S S S S S S  S S  S S  E  E
|--------------------|------------------------------------|
|--------------------|------------------------------------|
|--------------------|------------------------------------|
|-3-------5---2----3-|---------5-8-5---11-8---------------|
|-5-------7---3----5-|-------7-------7------10-7----12----|
|---0-0-0---0---0----|-0-5-8---------------------11-------|


  E S S E E E E E  E   S S S S S S S S S S S S S S S S
|--------------------|---------------------------------|
|--------------------|-------------------------3-1-----|
|-7-------9---5---10-|-2-0-----3-2-0---5-3-2-0-----3-2-|
|--------------------|-----3-2-------3-----------------|
|-5-------7---3----8-|---------------------------------|
|---0-0-0---0---0----|---------------------------------|
|
| E S S E E E E E  E   S S S S S S S S S S S S S S S S
|--------------------|---------------------------------|
|--------------------|---------------------------------|
|--------------------|-----------------2-0-----3-2-0---|
|-3-------5---2----3-|-3-2-0---5-3-2-0-----3-2-------3-|
|-5-------7---3----5-|-------3-------------------------|
|---0-0-0---0---0----|---------------------------------|


  E S S E E E E E  E   S S S S S S S S  S S  S S  E  E
|--------------------|------------------------------------|
|--------------------|------------------------------------|
|-7-------9---5---10-|-------0-3-6-3----9-6---------------|
|--------------------|---------------5-------8-5----------|
|-5-------7---3----8-|-0-1-4----------------------7--8----|
|---0-0-0---0---0----|------------------------------------|
|
| E S S E E E E E  E   S S S S S S S S  S S  S S  E  E
|--------------------|------------------------------------|
|--------------------|------------------------------------|
|--------------------|------------------------------------|
|-3-------5---2----3-|---------5-8-5---11-8---------------|
|-5-------7---3----5-|-------7-------7------10-7----12----|
|---0-0-0---0---0----|-0-5-8---------------------11-------|



Duration Legend
---------------
W - whole; H - half; Q - quarter; E - 8th; S - 16th; T - 32nd; X - 64th; a - acciaccatura
+ - note tied to previous; . - note dotted; .. - note double dotted
Uncapitalized letters represent notes that are staccato (1/2 duration)
Irregular groupings are notated above the duration line
Duration letters will always appear directly above the note/fret number it represents the
duration for.  Duration letters with no fret number below them represent rests.  Multi-
bar rests are notated in the form Wxn, where n is the number of bars to rest for.  Low
melody durations appear below the staff

Tablature Legend
----------------
 h   - hammer-on
 p   - pull-off
 b   - bend
 pb  - pre-bend
 r   - bend release (if no number after the r, then release immediately)
 /\  - slide into or out of (from/to "nowhere")
 s   - legato slide
 S   - shift slide
<n> - natural harmonic
[n]  - artificial harmonic
n(n) - tapped harmonic
 ~   - vibrato
 tr  - trill
 T   - tap
 TP  - trem. picking
 PM  - palm muting
\n/  - tremolo bar dip; n = amount to dip
 \n  - tremolo bar down
 n/  - tremolo bar up
/n\  - tremolo bar inverted dip
 =   - hold bend; also acts as connecting device for hammers/pulls
 <> - volume swell (louder/softer)
 x   - on rhythm slash represents muted slash
 o   - on rhythm slash represents single note slash

Misc Legend
-----------
 |  - bar
||  - double bar
||o - repeat start
o|| - repeat end
*|  - double bar (ending)
 :  - bar (freetime)
 $  - Segno
 &  - Coda
Tempo markers - <E/E./Q/Q./H/H.> = BPM(8/16=s8/s16), where s8 = swing 8ths, s16 = swing 16ths


** Generated using Power Tab Editor by Brad Larsen: The Official Power Tab Web Site