#----------------------------------PLEASE NOTE---------------------------------#
#This file is the author's own work and represents their interpretation of the #
#song. You may only use this file for private study, scholarship, or research. #
#------------------------------------------------------------------------------#

THE BARON VALSUGANA
As recorded by Blood Vacuum
(From the 2005 Album TEMPORAL STORM)

Transcribed by MC

Words and Music by M.Calestino
Arranged by MC


Gtr I (D G C F A D) - 'harpsichord'
Gtr II (D G C F A D) - 'baron axe'
Gtr III (D G C F A D) - 'rhythm'
Gtr IV (C G C F A D) - 'Untitled'

 4/4
  Wx2
|--------|
|--------|
|--------|
|--------|
|--------|
|--------|


  Q=74
 4/4
  Gtr I
  E  E   E   E E  E  E  E   E E E E E E E E
|-------------------------|-----------------|
|-------11----------10----|-----8-------6---|
|---12------12---10----10-|---9---9---7---7-|
|-0-(0)-(0)---------------|---------0-------|
|--------------8----------|-7---------------|
|-------------------------|-----------------|


  E E E E E E E E   E E E E E  E  E  E
|-----------------|----------------------|
|-----5-----------|----------------------|
|---6---6-----7---|-----6----------------|
|-----------8---8-|---7---7----7-----5---|
|-4---------------|-0-------8-(8)-7-(7)--|
|---------6-------|----------------------|


 2/4
  E  E  E  E  H
|---------------|----|
|-------------3-|----|
|-------------2-|----|
|----3-----2--0-|----|
|-5-(5)-4-(4)-0-|----|
|---------------|----|


 4/4
  Gtr IV
   Q     E  E  S  S  E       E  E  E  E  E  E   E
|-18----20-22-13-15-17----|----17-15----17-18--17----|
|-------------------------|-17-------17--------------|
|-------------------------|--------------------------|
|-------------------------|--------------------------|
|-------------------------|--------------------------|
|-------------------------|--------------------------|
|
| Gtr I
|  E  E  E  E  E  E  E  E    E  E  E  E  E  E   E  E
|-------------------------|--------------------------|
|-------11----------10----|--------8------------6----|
|----12----12----10----10-|-----9-----9-----7------7-|
|--0----------------------|--------------0-(0)-(0)---|
|--------------8----------|--7-----------------------|
|-------------------------|--------------------------|


  E  E E  E  E E  E E    Q      Q
|-9-------------------|---------------------------|
|---10----------------|--------14-----------------|
|------9-14-10--------|---------------------------|
|----------------12---|-11------------------------|
|---------------------|---------------------------|
|---------------------|---------------------------|
|
| E  E E  E  E E  E E    E  E   E  E E  E  E  E
|---------------------|---------------------------|
|------5--------------|---------------------------|
|----6----6-------7---|---------6-----------------|
|--------------8----8-|-----7------7----7-----5---|
|-4-------------------|--0-(0)-(0)---8-(8)-7-(7)--|
|------------6--------|---------------------------|


 2/4
   E  E   E  E   Q.
|-15-----13-12--13-----|----|
|----14----------------|----|
|----------------------|----|
|----------------------|----|
|----------------------|----|
|----------------------|----|
|
| Gtr I
|  E  E   E  E   H
|----------------------|----|
|----------------3-----|----|
|----------------2-----|----|
|-----3------2---0-----|----|
|--5-(5)--4-(4)--0-----|----|
|----------------------|----|


 4/4
  Gtr I
  E E E E E E E E   E E E E E E E E   E E E E E E E E   E E E E E E S  S   E
|-------1-----1---|-------0-----0---|-------0-------0-|-3-----1-----0--1---0--|
|-----3---3-----3-|-----3---3-----3-|-----2---2---2---|---2-----2---2-(2)-(2)-|
|---2-------2-----|---2-------2-----|---2-------2-----|-----2-----2-2-(2)-(2)-|
|-0---------------|-0---------------|-----------------|-----------------------|
|-----------------|-----------------|-0---------------|-0-----------0---------|
|-----------------|-----------------|-----------------|-----------------------|


  E E E E E E E E   E E E E E E E E   E E E E E E E E   E E E E E E E E
|---------0-------|---------5-------|---------3-------|-5-------------0-|
|-------6---6-----|-------6---6-----|-------5---5---5-|---5-------8-6---|
|-----7-------7---|-----7-------7---|-----6-------6---|-----6---6-------|
|---7-----------7-|---7-----------7-|---7-------------|-------7---------|
|-5---------------|-5---------------|-4---------------|---------0-------|
|-----------------|-----------------|-----------------|-----------------|


  E E E E E E E E   E E E E E E E E   E E E E E E E E   E E E E E E E E
|---------0-------|---------5-------|-------3-6-3---3-|---------------0-|
|-------6---6-----|-------6---6-----|-----5-------5---|-------3-6-------|
|-----7-------7---|-----7-------7---|---6-------------|-----2-----7-----|
|---7-----------7-|---7-----------7-|-5---------------|---3---------8---|
|-5---------------|-5---------------|-0---------------|-5---------------|
|-----------------|-----------------|-----------------|-----------------|


  E  E   E   E  E  E   E   E    E  E   E  E E  E   E  E
|----5----------5-------------|----3--------3-----------|
|--------3---------3-------3--|--------3-------3------3-|
|------------2---------2------|-----------3--------3----|
|-0-(0)-(0)-(0)-0-(0)-(0)-(0)-|-0-(0)-(0)---------------|
|-----------------------------|-------------1-(1)-(1)---|
|-----------------------------|-3-----------------------|


                                |--3---|
  E  E   E   E  E  E  E  E    E S  S   S  E E E E  E  E
|----5----------------------|-6-5--6---5--3-------------|
|--------3------------------|---------------6-5---------|
|------------2-----2-----0--|-----------------0-7--9-12-|
|-0-(0)-(0)-(0)-3-(3)-2-(2)-|---------------------11-11-|
|---------------------------|---0-(0)-(0)-4-5-7-8-10--0-|
|---------------1-----0-----|-6-------------------------|


  E  E   E   E  E  E   E   E    E  E   E  E E  E   E  E
|----5----------5-------------|----3--------3-----------|
|--------3---------3-------3--|--------3-------3------3-|
|------------2---------2------|-----------3--------3----|
|-0-(0)-(0)-(0)-0-(0)-(0)-(0)-|-0-(0)-(0)---------------|
|-----------------------------|-------------1-(1)-(1)---|
|-----------------------------|-3-(3)-(3)---------------|


                                |--3---|
  E  E   E   E  E  E  E  E    E S  S   S  E E E E  E  E
|----5----------------------|-6-5--6---5--3-------------|
|--------3------------------|---------------6-5---------|
|------------2-----2-----0--|-----------------0-7--9-12-|
|-0-(0)-(0)-(0)-3-(3)-2-(2)-|---------------------11-11-|
|---------------------------|---0-(0)-(0)-4-5-7-8-10--0-|
|---------------1-(1)-0-(0)-|-6-------------------------|


  H
|-5----|
|-6----|
|-7----|
|-7----|
|-5----|
|-5----|


  Q=150
  Gtr II
   E    E    E    E    E    E    E    E    E    E    E    E    E    E    E    E
|---------------------------------------------------------------------------------|
|-15------------------15------------------17------------------18------------------|
|------14--------14--------14--------14--------14--------14--------14--------14---|
|-----------15------------------15------------------15------------------15--------|
|---------------------------------------------------------------------------------|
|---------------------------------------------------------------------------------|
|
| Gtr III
|  S S  S S  S S  S S  S S  S S  S S  S S  S S  S S  S S  S S  S S  S S  S S  S S
|---------------------------------------------------------------------------------|
|--------------------------------6-6--6-6----------------------6-6--6-6-----------|
|----------------------7-7--7-7------------7-7--7-7----------------------7-7--7-7-|
|------------7-7--7-7--------------------------------7-7--7-7---------------------|
|--5-5--5-5-----------------------------------------------------------------------|
|---------------------------------------------------------------------------------|
|
| Gtr IV
|  S S  S S  S S  S S  S S  S S  S S  S S  S S  S S  S S  S S  S S  S S  S S  S S
|---------------------------------------------------------------------------------|
|---------------------------------------------------------------------------------|
|---------------------------------------------------------------------------------|
|--3-3--3-3--3-3--3-3--8-8--8-8--7-7--7-7--2-2--2-2--2-2--2-2--3-3--3-3--5-5--5-5-|
|--5-5--5-5--5-5--5-5--5-5--5-5--8-8--8-8--4-4--4-4--4-4--4-4--0-0--0-0--7-7--7-7-|
|---------------------------------------------------------------------------------|


   E    E    E    E    E    E    E    E    E    E    E    E    E    E    E    E
|-17--------------------------------------------------------------------17--------|
|-----------17--------18--------15---14--------14---17---14---14---17--------14---|
|------14---------------------------------14--------------------------------------|
|----------------14--------14-----------------------------------------------------|
|---------------------------------------------------------------------------------|
|---------------------------------------------------------------------------------|
|
|  S S  S S  S S  S S  S S  S S  S S  S S  S S  S S  S S  S S  S S  S S  S S  S S
|---------------------------------------------------------------------------------|
|--------------------------------5-5--5-5-----------------------------------------|
|----------------------6-6--6-6------------6-6--6-6------------6-6--6-6-----------|
|------------7-7--7-7--------------------------------7-7--7-7------------7-7--7-7-|
|---------------------------------------------------------------------------------|
|--5-5--5-5-----------------------------------------------------------------------|
|
|  S S  S S  S S  S S  S S  S S  S S  S S  S S  S S  S S  S S  S S  S S  S S  S S
|---------------------------------------------------------------------------------|
|---------------------------------------------------------------------------------|
|---------------------------------------------------------------------------------|
|--2-2--2-2--2-2--2-2--7-7--7-7--7-7--7-7------------2-2--2-2--5-5--5-5--3-3--2-2-|
|--0-0--0-0--4-4--4-4--5-5--5-5--7-7--7-7--4-4--4-4--4-4--4-4--4-4--4-4--0-0--0-0-|
|------------------------------------------5-5--5-5-------------------------------|


   E    E    E    E    E    E    E    E    E    E    E    E    E    E    E    E
|---------------------------------------------------------------------------------|
|-15------------------15------------------17------------------18------------------|
|------14--------14--------14--------14--------14--------14--------14--------14---|
|-----------15------------------15------------------15------------------15--------|
|---------------------------------------------------------------------------------|
|---------------------------------------------------------------------------------|
|
|  S S  S S  S S  S S  S S  S S  S S  S S  S S  S S  S S  S S  S S  S S  S S  S S
|---------------------------------------------------------------------------------|
|--------------------------------6-6--6-6----------------------6-6--6-6-----------|
|----------------------7-7--7-7------------7-7--7-7----------------------7-7--7-7-|
|------------7-7--7-7--------------------------------7-7--7-7---------------------|
|--5-5--5-5-----------------------------------------------------------------------|
|---------------------------------------------------------------------------------|
|
|  S S  S S  S S  S S  S S  S S  S S  S S  S S  S S  S S  S S  S S  S S  S S  S S
|---------------------------------------------------------------------------------|
|---------------------------------------------------------------------------------|
|---------------------------------------------------------------------------------|
|--3-3--3-3--3-3--3-3--8-8--8-8--7-7--7-7--2-2--2-2--2-2--2-2--3-3--3-3--5-5--5-5-|
|--5-5--5-5--5-5--5-5--5-5--5-5--8-8--8-8--4-4--4-4--4-4--4-4--0-0--0-0--7-7--7-7-|
|---------------------------------------------------------------------------------|


   E    E    E    E    E    E    E    E    E    E    E    E    E    E    E    E
|-17--------------------------------------------------------------------17--------|
|-----------17--------18--------15---14--------14---17---14---14---17--------14---|
|------14---------------------------------14--------------------------------------|
|----------------14--------14-----------------------------------------------------|
|---------------------------------------------------------------------------------|
|---------------------------------------------------------------------------------|
|
|  S S  S S  S S  S S  S S  S S  S S  S S  S S  S S  S S  S S  S S  S S  S S  S S
|---------------------------------------------------------------------------------|
|--------------------------------5-5--5-5-----------------------------------------|
|----------------------6-6--6-6------------6-6--6-6------------6-6--6-6-----------|
|------------7-7--7-7--------------------------------7-7--7-7------------7-7--7-7-|
|---------------------------------------------------------------------------------|
|--5-5--5-5-----------------------------------------------------------------------|
|
|  S S  S S  S S  S S  S S  S S  S S  S S  S S  S S  S S  S S  S S  S S  S S  S S
|---------------------------------------------------------------------------------|
|---------------------------------------------------------------------------------|
|---------------------------------------------------------------------------------|
|--2-2--2-2--2-2--2-2--7-7--7-7--7-7--7-7------------2-2--2-2--5-5--5-5--3-3--2-2-|
|--0-0--0-0--4-4--4-4--5-5--5-5--7-7--7-7--4-4--4-4--4-4--4-4--4-4--4-4--0-0--0-0-|
|------------------------------------------5-5--5-5-------------------------------|


   E    E    E    E    E    E    E    E    E    E    E    E    E    E    E    E
|-13------------------13------------------15------------------17------------------|
|-15---15--------15---15---15--------15---17---15--------15---18---15--------15---|
|------14---14---14--------14---14---14--------14---14---14--------14---14---14---|
|-----------15------------------15------------------15------------------15--------|
|---------------------------------------------------------------------------------|
|---------------------------------------------------------------------------------|
|
|  S S  S S  S S  S S  S S  S S  S S  S S  S S  S S  S S  S S  S S  S S  S S  S S
|---------------------------------------------------------------------------------|
|--------------------------------6-6--6-6----------------------6-6--6-6-----------|
|----------------------7-7--7-7------------7-7--7-7----------------------7-7--7-7-|
|------------7-7--7-7--------------------------------7-7--7-7---------------------|
|--5-5--5-5-----------------------------------------------------------------------|
|---------------------------------------------------------------------------------|
|
|  S S  S S  S S  S S  S S  S S  S S  S S  S S  S S  S S  S S  S S  S S  S S  S S
|---------------------------------------------------------------------------------|
|---------------------------------------------------------------------------------|
|---------------------------------------------------------------------------------|
|--3-3--3-3--3-3--3-3--8-8--8-8--7-7--7-7--2-2--2-2--2-2--2-2--3-3--3-3--5-5--5-5-|
|--5-5--5-5--5-5--5-5--5-5--5-5--8-8--8-8--4-4--4-4--4-4--4-4--0-0--0-0--7-7--7-7-|
|---------------------------------------------------------------------------------|


   E    E    E    E    E    E    E    E    E    E    E    E    E    E    E    E
|-17--------------------------------------------------------------------17--------|
|-----------17--------18--------15---14--------14---17---14---14---17--------14---|
|------14---------------------------------14--------------------------------------|
|----------------14--------14-----------------------------------------------------|
|---------------------------------------------------------------------------------|
|---------------------------------------------------------------------------------|
|
|  S S  S S  S S  S S  S S  S S  S S  S S  S S  S S  S S  S S  S S  S S  S S  S S
|---------------------------------------------------------------------------------|
|--------------------------------5-5--5-5-----------------------------------------|
|----------------------6-6--6-6------------6-6--6-6------------6-6--6-6-----------|
|------------7-7--7-7--------------------------------7-7--7-7------------7-7--7-7-|
|---------------------------------------------------------------------------------|
|--5-5--5-5-----------------------------------------------------------------------|
|
|  S S  S S  S S  S S  S S  S S  S S  S S  S S  S S  S S  S S  S S  S S  S S  S S
|---------------------------------------------------------------------------------|
|---------------------------------------------------------------------------------|
|---------------------------------------------------------------------------------|
|--2-2--2-2--2-2--2-2--7-7--7-7--7-7--7-7------------2-2--2-2--5-5--5-5--3-3--2-2-|
|--0-0--0-0--4-4--4-4--5-5--5-5--7-7--7-7--4-4--4-4--4-4--4-4--4-4--4-4--0-0--0-0-|
|------------------------------------------5-5--5-5-------------------------------|


  Gtr III
  S S S S S S S S S S S S S S S S S S S S S S S S S S S S S S S S
|-----------------------------------------------------------------|
|-----------------------------------------------------------------|
|-6-6-6-6-3-3-3-3-------------------------3-3-3-3-6-6-6-6-3-3-3-3-|
|-8-8-8-8-5-5-5-5-5-5-5-5-2-2-2-2-5-5-5-5-5-5-5-5-8-8-8-8-5-5-5-5-|
|-----------------7-7-7-7-4-4-4-4-7-7-7-7-------------------------|
|-----------------------------------------------------------------|
|
| H               H               H               H
|-----------------------------------------------------------------|
|-----------------------------------------------------------------|
|-9---------------6---------------3-------------------------------|
|-------------------------------------------------5---------------|
|-7---------------4---------------1-------------------------------|
|-------------------------------------------------3---------------|


  S S S S  S  S  S  S S S S S S S S S S S S S  S  S  S  S  S S S S  S  S  S  S
|------------------------------------------------------------------------------|
|------------------------------------------------------------------------------|
|------------------------------------------------------------------------------|
|-7-7-7-7--------------------------------------------------7-7-7-7-------------|
|-8-8-8-8--8--8--8--8-5-5-5-5-0-0-0-0-5-5-5-5--8--8--8--8--8-8-8-8--8--8--8--8-|
|---------10-10-10-10-5-5-5-5-1-1-1-1-5-5-5-5-10-10-10-10----------10-10-10-10-|
|
| H                   H               H                    H
|------------------------------------------------------------------------------|
|------------------------------------------------------------------------------|
|-------------------------------------7-------------------10-------------------|
|-7-------------------3--------------------------------------------------------|
|-------------------------------------5--------------------8-------------------|
|-5-------------------1--------------------------------------------------------|


  S S S S  S  S S S S S S S  S  S S S    S S S S   S  S S S S S S S  S  S S S
|-------------------------------------|---------------------------------------|
|-------------------------------------|---------------------------------------|
|-3-3-3-3-----------------------------|---------------------3-3-3-3-----------|
|-5-5-5-5--5--5-5-5-2-2-2-2-----------|--2-2-2-2---5--5-5-5-5-5-5-5--5--5-5-5-|
|----------7--7-7-7-4-4-4-4--4--4-4-4-|--4-4-4-4---7--7-7-7----------7--7-7-7-|
|----------------------------5--5-5-5-|---------------------------------------|
|
| Q        Q        Q        Q           Q         Q        Q        Q
|-------------------------------------|---------------------------------------|
|-------------------------------------|---------------------------------------|
|-9-------(9)-------6-------(6)-------|-12-------(12)-------9-------(9)-------|
|----------8-----------------5--------|-----------11-----------------8--------|
|-7-------(7)-------4-------(4)-------|-10-------(10)-------7-------(7)-------|
|-------------------------------------|---------------------------------------|


  Q=100
  H    Q  Q
|-5----------|
|-6----------|
|-7----------|
|-7----0--3--|
|-5----0--5--|
|-5----------|


  Q=100
 4/4
  Gtr III
   S S S S S S S S  S S  S S  S S S S   S S S S S S S S S S S S S S S S
|-------------------------------------|----------------------------------|
|-------------------------------------|----------------------------------|
|-------------------------------------|-----------------------3-5-7-5-3--|
|-12-0-7-0-8-0-5-0-11-0--8-0-10-0-7-0-|-7-0-3-0-8-0-5-0-2-3-5------------|
|-------------------------------------|----------------------------------|
|-------------------------------------|----------------------------------|
|
| Gtr III
|  S S S S S S S S  S S  S S  S S S S   S S S S S S S S S S S S S S S S
|-------------------------------------|----------------------------------|
|-------------------------------------|----------------------------------|
|-------------------------------------|----------------------------------|
|--7-0-----5-0------8-0-------7-0-----|-3-0-----5-0-----------5-7-8-7-5--|
|------8-0-----7-0------10-0------8-0-|-----5-0-----7-0-4-5-7------------|
|-------------------------------------|----------------------------------|


  Q=100
 4/4
  Gtr III
   S S S S S S S S  S S  S S  S S S S   S S S S S S S S S S S S S S S S
|-------------------------------------|----------------------------------|
|-------------------------------------|----------------------------------|
|-------------------------------------|-----------------------3-5-7-5-3--|
|-12-0-7-0-8-0-5-0-11-0--8-0-10-0-7-0-|-7-0-3-0-8-0-5-0-2-3-5------------|
|-------------------------------------|----------------------------------|
|-------------------------------------|----------------------------------|
|
| Gtr III
|  S S S S S S S S  S S  S S  S S S S   S S S S S S S S S S S S S S S S
|-------------------------------------|----------------------------------|
|-------------------------------------|----------------------------------|
|-------------------------------------|----------------------------------|
|--7-0-----5-0------8-0-------7-0-----|-3-0-----5-0-----------5-7-8-7-5--|
|------8-0-----7-0------10-0------8-0-|-----5-0-----7-0-4-5-7------------|
|-------------------------------------|----------------------------------|


  Q=100
 4/4
  Gtr III
   S S S S S S S S  S S  S S  S S S S   S S S S S S S S S S S S S S S S
|-------------------------------------|----------------------------------|
|-------------------------------------|----------------------------------|
|-------------------------------------|-----------------------3-5-7-5-3--|
|-12-0-7-0-8-0-5-0-11-0--8-0-10-0-7-0-|-7-0-3-0-8-0-5-0-2-3-5------------|
|-------------------------------------|----------------------------------|
|-------------------------------------|----------------------------------|
|
| Gtr III
|  S S S S S S S S  S S  S S  S S S S   S S S S S S S S S S S S S S S S
|-------------------------------------|----------------------------------|
|-------------------------------------|----------------------------------|
|-------------------------------------|----------------------------------|
|--7-0-----5-0------8-0-------7-0-----|-3-0-----5-0-----------5-7-8-7-5--|
|------8-0-----7-0------10-0------8-0-|-----5-0-----7-0-4-5-7------------|
|-------------------------------------|----------------------------------|


  S S S S S S S S   S S S S S S S S   S  S S  S S S S S   S S S S S S S S
|-----------------|-----------------|-------------------|-----------------|
|-----------------|-----------------|-------------------|-----------------|
|-----------------|-------------3---|------7--------5---|-----3-------2---|
|-------------2---|-----5-----5---5-|-0--8----8-0-7---7-|-0-5---5-0-3---3-|
|-----4-----4---4-|-4-7---7-4-------|-------------------|-----------------|
|-3-6---6-3-------|-----------------|-------------------|-----------------|
|
| S S S S S S S S   S S S S S S S S   S  S S  S S S S S   S S S S S S S S
|-----------------|-----------------|-------------------|-----------------|
|-----------------|-----------------|-------------------|-----------------|
|-----------------|-----------------|-------------------|-----------------|
|-----------------|-----2-------5---|------8--------7---|-----5-------3---|
|-----1-------4---|-0-4---4-0-7---7-|-0-10---10-0-8---8-|-0-7---7-0-5---5-|
|-0-3---3-0-6---6-|-----------------|-------------------|-----------------|


  S S S S S S S S S S S S Q    Q   Q   Q  Q
|-------------------------0--|---------------|
|-----------------5-------6--|----10---------|
|---------5-7-5-----7-5---7--|-9---9---------|
|-----5-8-------8-------8----|-7------11-----|
|-4-7------------------------|--------10--7--|
|----------------------------|------------5--|
|
| S S S S S S S S S S S S Q    Q   Q   Q  Q
|----------------------------|---------------|
|----------------------------|---------------|
|-----------------5----------|-----7---9--6--|
|-------5-7-8-7-5---8-7-5-7--|-0---8---8--7--|
|-0-4-7-------------------5--|-0-------------|
|----------------------------|---------------|


 4/4
   S  S  S S  S  S  Q.   S  S  S  S    S  S  S S  S  S  Q.    S  S  S  S
|-----------------------------10-13-|------------------------------12-15-|
|------------------10------10-------|------------------11-------11-------|
|------------------10---10----------|------------------12----12----------|
|-14-12-11-0-11-12------------------|-15-14-12-0-12-14-------------------|
|-----------------------------------|------------------------------------|
|-----------------------------------|------------------------------------|
|
| Gtr III
|  S  S  S S  S  S  Q.   S  S  S  S    S  S  S S  S  S  Q.    S  S  S  S
|--------------------------------10-|---------------------------------12-|
|-----------------------------10----|------------------------------11----|
|-------------------7----7-10-------|-------------------------9-12-------|
|-------------------7---------------|-------------------8----------------|
|--5--5--5-5--5--5--5---------------|--5--5--5-5--5--5--5----------------|
|-----------------------------------|------------------------------------|


   S S S S S  S Q.   S S S  S   S S S S S S  Q.    S  S  S  S
|------------------------6-10-|-------------------------10-13----|
|---------------8------8------|-------------10-------10----------|
|---------------9----9--------|-------------10----10-------------|
|-10-8-7-0-8-10---------------|-8-7-5-0-7-8----------------------|
|-----------------------------|----------------------------------|
|-----------------------------|----------------------------------|
|
|  S S S S S  S Q.   S S S  S   S S S S S S  Q.    S  S  S  S
|---------------------------6-|----------------------------10----|
|------------------------8----|-------------------------10-------|
|--------------------6-9------|--------------7-----7-10----------|
|---------------5-------------|--------------7-------------------|
|--5-5-5-5-5--5-7-------------|-5-5-5-5-5-5--5-------------------|
|-----------------------------|----------------------------------|


  S S S S S S Q.   S S S S    S S S S S  S Q.   S S S  S
|----------------------5-6-|------------------------6-10-|
|-------------6------6-----|---------------8------8------|
|-------------7----7-------|---------------9----9--------|
|-7-5-3-0-5-7--------------|-10-8-7-0-8-10---------------|
|--------------------------|-----------------------------|
|--------------------------|-----------------------------|
|
| Gtr III
| S S S S S S Q.   S S S S    S S S S S  S Q.   S S S  S
|--------------------------|---------------------------6-|
|----------------------6-8-|------------------------8----|
|-------------7------7-----|--------------------6-9------|
|-------------7----7-------|---------------5-------------|
|-5-5-5-5-5-5-5------------|--5-5-5-5-5--5-7-------------|
|--------------------------|-----------------------------|


  S S S S S S Q.   S S S S   S S S S S S Q.   Q    Q  Q   Q   Q
|----------------------3-6-|---------------------|----5--10--10----|
|-------------5------5-----|-------------6-------|-6---------------|
|-------------6----6-------|-------------7----7--|-----------------|
|-5-3-2-0-3-5--------------|-7-5-3-0-5-7---------|------------0----|
|--------------------------|---------------------|-----------------|
|--------------------------|---------------------|-----------------|
|
| S S S S S S Q.   S S S S   S S S S S S Q.   Q    Q  Q   Q   Q
|--------------------------|---------------------|-----------------|
|----------------------5-8-|---------------------|----6---8--10----|
|--------------------6-----|-------------7-------|-7---------10----|
|-------------7----7-------|-------------7----7--|------------7----|
|-5-5-5-5-5-5-4------------|-5-5-5-5-5-5-5-------|------------0----|
|--------------------------|---------------------|-----------------|


   H    H
|-10---------|
|------------|
|------------|
|--0---------|
|------------|
|------------|
|
|  H    H
|------------|
|-10---------|
|-10---------|
|--7---------|
|--0---------|
|------------|


  Q=74
  Gtr I
  Q  Q  Q  Q    E E E E E E E E
|-------------|------------------|
|----2--------|------------------|
|-2-----0--0--|---2---0---0------|
|-3-----2--0--|-----3-------2----|
|----4--------|-0-------3-----3--|
|-------------|------------------|
|
| Gtr I
| Q  Q  Q  Q    H       Q   E E
|-------0-----|---------------0--|
|----------3--|-2-----------1----|
|-7--2-----3--|-2-------------0--|
|-------------|---------2---2----|
|-5--0-----1--|-0----------------|
|-------3-----|---------3--------|


  Q=74
  Gtr I
  Q  Q  Q  Q    E E E E E E E E
|-1-----------|------------------|
|----2--------|---------1--------|
|-2-----0--0--|---2---0---0------|
|-3-----2--0--|-----3-------2----|
|-------------|-0-------3-----3--|
|----0--------|------------------|
|
| Gtr I
| Q  Q  Q  Q    E E E E Q   E E
|-------0-----|---------------0--|
|----------3--|-2-2---5-----1----|
|-7--2-----3--|-2---2---------0--|
|-------------|---------2---2----|
|-5--0-----1--|-0----------------|
|-------3-----|---------3--------|


  Q=74
  Gtr I
  Q  Q  Q  Q    E E E E E E E E
|-------------|------------------|
|----2--------|------------------|
|-2-----0--0--|---2---0---0------|
|-3-----2--0--|-----3-------2----|
|----4--------|-0-------3-----3--|
|-------------|------------------|
|
| Gtr I
| Q  Q  Q  Q    H       Q   E E
|-------0-----|---------------0--|
|----------3--|-2-----------1----|
|-7--2-----3--|-2-------------0--|
|-------------|---------2---2----|
|-5--0-----1--|-0----------------|
|-------3-----|---------3--------|


  Q=74
  Gtr I
  Q  Q  Q  Q    E E E E E E E E
|-1-----------|------------------|
|----2--------|---------1--------|
|-2-----0--0--|---2---0---0------|
|-3-----2--0--|-----3-------2----|
|-------------|-0-------3-----3--|
|----0--------|------------------|
|
| Gtr I
| Q  Q  Q  Q    E E E E Q   E E
|-------0-----|---------------0--|
|----------3--|-2-2---5-----1----|
|-7--2-----3--|-2---2---------0--|
|-------------|---------2---2----|
|-5--0-----1--|-0----------------|
|-------3-----|---------3--------|



Duration Legend
---------------
W - whole; H - half; Q - quarter; E - 8th; S - 16th; T - 32nd; X - 64th; a - acciaccatura
+ - note tied to previous; . - note dotted; .. - note double dotted
Uncapitalized letters represent notes that are staccato (1/2 duration)
Irregular groupings are notated above the duration line
Duration letters will always appear directly above the note/fret number it represents the
duration for.  Duration letters with no fret number below them represent rests.  Multi-
bar rests are notated in the form Wxn, where n is the number of bars to rest for.  Low
melody durations appear below the staff

Tablature Legend
----------------
 h   - hammer-on
 p   - pull-off
 b   - bend
 pb  - pre-bend
 r   - bend release (if no number after the r, then release immediately)
 /\  - slide into or out of (from/to "nowhere")
 s   - legato slide
 S   - shift slide
<n> - natural harmonic
[n]  - artificial harmonic
n(n) - tapped harmonic
 ~   - vibrato
 tr  - trill
 T   - tap
 TP  - trem. picking
 PM  - palm muting
\n/  - tremolo bar dip; n = amount to dip
 \n  - tremolo bar down
 n/  - tremolo bar up
/n\  - tremolo bar inverted dip
 =   - hold bend; also acts as connecting device for hammers/pulls
 <> - volume swell (louder/softer)
 x   - on rhythm slash represents muted slash
 o   - on rhythm slash represents single note slash

Misc Legend
-----------
 |  - bar
||  - double bar
||o - repeat start
o|| - repeat end
*|  - double bar (ending)
 :  - bar (freetime)
 $  - Segno
 &  - Coda
Tempo markers - <E/E./Q/Q./H/H.> = BPM(8/16=s8/s16), where s8 = swing 8ths, s16 = swing 16ths


** Generated using Power Tab Editor by Brad Larsen: The Official Power Tab Web Site