#----------------------------------PLEASE NOTE---------------------------------#
#This file is the author's own work and represents their interpretation of the #
#song. You may only use this file for private study, scholarship, or research. #
#------------------------------------------------------------------------------#

SO LONG, MONSTER...
As recorded by Blood Vacuum
(From the 2004 Album HOPELESS IN C MINOR)

Transcribed by MC

Music by Matthew Calestino
Arranged by M.Calestino


Gtr I (C# G C F A D) - 'banjo'
Gtr II (C# G C F A D) - 'piano'
Gtr III (C# G C F A D) - 'harmonica'
Gtr IV (C# G C F A D) - 'strings'
Gtr V (C# G C F A D) - 'harmonics'
Gtr VI (C# G C F A D) - 'fiddle'

  Q=90
 4/4
  Wx4
|--------|
|--------|
|--------|
|--------|
|--------|
|--------|


  Q=90
  Gtr II
   W                 H            Q   H      Q    Q
|-11---------------|-9------------7-------------------|
|------------------|------------------6------4----3---|
|------------------|------------------4------4----4---|
|--1---------------|-6-----------(6)--0-----(0)--(0)--|
|------------------|----------------------------------|
|--0---------------|-5-----------(5)------------------|
|
| Gtr I
|  E E E E E E E E   E E  E   E   H      H
|------------------|----------------------------------|
|----------0-------|-------------^0-------------------|
|--------3---3-----|----------3--^3-------------------|
|--4---4-------4---|-6----4--(4)-^4-------------------|
|----6-----------6-|---6-(6)-(6)----------------------|
|------------------|----------------------------------|


  W                 H.            H      Q    Q
|-6---------------|---------------------------7---|
|-4---------------|--------------^9------6---(6)--|
|-3---------------|--------------^7------4---(4)--|
|-4---------------|--------------^9------6---(6)--|
|-----------------|-------------------------------|
|-0---------------|--------------^5-----(5)--(5)--|
|
| E E E E E E E E   E  E E E  H      H
|-----------------|-------------------------------|
|---------0-------|----------^0-------------------|
|-------3---3-----|--------3-^8-------------------|
|-4---4-------4---|-6----4---^4-------------------|
|---6-----------6-|----6--------------------------|
|-----------------|-------------------------------|


  Q=90
  Gtr IV
   <
   H.                  H.             H      H
|-------------------|-----------------------------|
|-23----------------|-21-------------11------3----|
|-------------------|-----------------------------|
|-20----------------|-18--------------8------0----|
|-------------------|-----------------------------|
|-------------------|-----------------------------|
|
| Gtr II
|  W                   H.             H      H
|-11----------------|---------------^14-----13----|
|-11----------------|---------------^11-----12----|
|-11----------------|---------------^11-----11----|
|--8----------------|---------------^-8------0----|
|-------------------|-----------------------------|
|--0----------------|-----------------------------|
|
| Gtr I
|  E  E E E E E E E    E  E E E  H       H
|-------------------|-----------------------------|
|-----------0-------|-----------^0----------------|
|---------3---3-----|---------3-^3----------------|
|--4----4-------4---|--6----4---^4----------------|
|-----6-----------6-|-----6-----------------------|
|-------------------|-----------------------------|


   H       H         E  E E  E  Q   H      H
|------------------|------------7--(7)----------|
|--4---------------|-9----7-11------9------7----|
|------------------|----8-----------------------|
|--1---------------|----------------------------|
|----------6-------|----------------------------|
|----------0-------|----------------------------|
|
|  W                 H.             H      H
|-18---------------|-----------------------7----|
|-11---------------|---------------^9------7----|
|-11---------------|---------------^7------4----|
|--8---------------|---------------^9------6----|
|------------------|----------------------------|
|--0---------------|---------------^5------5----|
|
|  E E E E E E E E   E  E E  E  H       H
|------------------|----------------------------|
|----------0-------|-----------^0---------------|
|--------3---3-----|---------3-^8---------------|
|--4---4-------4---|-6----4----^4---------------|
|----6-----------6-|----6-----------------------|
|------------------|----------------------------|


 6/4
  Gtr IV                        Gtr III
   H        Q       Q.      Q    E    H
|-15--------6----|-13------16---^6-|-/8---------------|
|--8-------(8)---|---------18---^8-|-/9---------------|
|----------------|-15--------------|------------------|
|----------------|-----------------|------------------|
|----------------|-----------------|------------------|
|----------------|-----------------|------------------|
|
| Gtr I
|  E E E E  E  E    E  E E  E E  E    E E E E  S  S E
|-^3-------------|-^1--------------|--------4-^4-!4-4-|
|----------------|---------------4-|------4---^4----4-|
|-^0-0-0-0--0--0-|-^0--0-0--0-0--0-|----5---5-^5-!5-5-|
|-^8-8-8-8--8--8-|-^8--8-8--8-8--8-|--3-------^3-!3-3-|
|-^8-6-6-6--6--6-|-^8--6-6--6-6--6-|------------------|
|----------------|-----------------|------------------|
|
| Gtr II
|  E E E E  E  E    E  E E  E E  E    E E E E  E    E
|----------------|-----------------|------------------|
|----------------|-----------------|------------------|
|--------0-------|----------0------|--------5---------|
|------3----3----|-------3----3----|------6----6------|
|----6---------6-|-----1-----------|----8-----------8-|
|--0-------------|--0------------4-|--5---------------|


   H                   H       Q      Q
|-11---------------|-/10--------------------|
|-13---------------|-/11-------6-----/8-----|
|------------------|-----------7-----/8-----|
|------------------|------------------------|
|------------------|------------------------|
|------------------|------------------------|
|
|  Q     E   E E E     Q   E E E  E   E  E
|--6-------------8-|-^-6--------------4--3--|
|------------------|------------------------|
|--1-----1---1-1-1-|-^-1---1-1-1--1---1--1--|
|--1-----1---1-1-1-|-^-0---0-0-0--0---0--0--|
|--3-----3---3-3-3-|-^-1---1-1-1--1---1--1--|
|------------------|------------------------|
|
|  E  E  S S E E E     E E E E E  E   E  E
|------------------|------------------------|
|------------------|---------------------4--|
|--8-(8)-----8-----|---7-------7--5---3-----|
|-----6--------6---|-----6---6-8--6---5h=6--|
|--6-(6)-6h8-----8-|---5---8---5-(5)--5-(5)-|
|--0---------------|------------------------|


  Gtr II
   Q    E   E   E   E     E    E   E  E   E    E     H          E
|-15---------------23-|-(23)-(23)----18-(18)-(18)-|-20--------^23---|
|-18---23-------------|---------------------------|-13--------^18---|
|-20-------24---------|---5----3---8-10--12---13--|--5--------------|
|-15-----------25-----|---6----5--10-12--13---15--|--6--------------|
|-18----------------6-|---1-----------------------|--8--------------|
|--0---(0)-(0)-(0)----|---------------------------|--5--------------|
|
| Gtr I
|  E E  E   E   E   E     E    E   E  E   E    E     E E  E E   E E
|---------------------|---------------------------|-----------------|
|---------------------|---------------------------|-----------------|
|-----------0---------|---------------0-----------|---------5-------|
|-------3-------3-----|------------3------3-------|-------6-----6---|
|--6-6--------------6-|---6----1------------------|----8----------8-|
|---------------------|------------------------4--|--5--------------|
|
| Gtr III               Gtr VI
|  Q                      E    E   E  E   E    E     Q    Q     Q
|---------------------|---------------------------|-----------------|
|--8------------------|--------------20-------23--|-21---20---------|
|--8------------------|-------20--22-----22-------|-22---20----20---|
|---------------------|-/20-----------------------|------------22---|
|---------------------|---------------------------|-----------------|
|---------------------|---------------------------|-----------------|


    E     E    S  S  E  E  E    E  E  E  E  E  E    E  E
|--23---------------23-------|-22--------------------------|
|--------23---16-18----23-18-|----23-18-23-11--9----8--9---|
|----------------------------|-----------------------------|
|----------------------------|----------------------5--3---|
|---6----------------6-------|--8-----------5-(5)--(5)(5)--|
|---0----------------0-------|--2-----------7--5----4--2---|
|
|   E     E    S  S  E  E  E    E  E  E  E  E  E    E  E
|----------------------------|-----------------------------|
|----------------------------|-------------------------4---|
|-^-8----(8)---------8-------|-^7-----------7--5----3------|
|---------6-------------6----|-----6-----6--8--6----5h=6---|
|-^-6----(6)---6h=8--------8-|-^5-----8-----5-(5)---5-(5)--|
|----------------------------|-----------------------------|
|
| Gtr III
|   S  S  E    E     Q          H           Q       Q
|-/11-12-13--/15----16-------|-18----------16-----/20------|
|-/13-14-15--/16----18-------|-20----------18-----/21------|
|----------------------------|-----------------------------|
|----------------------------|-----------------------------|
|----------------------------|-----------------------------|
|----------------------------|-----------------------------|


          Gtr II
   Q        E   E   E      E     E      E   E  E   E    E
|-15----------------------23-|--23----(23)----18-(18)-(18)-|
|-18-------23----------------|-----------------------------|
|-20-----------24------------|---5------3---8-10--12---13--|
|-15---------------25--------|---6------5--10-12--13---15--|
|-18-----------------------6-|---1-------------------------|
|--0-------(0)-(0)-(0)-------|-----------------------------|
|
|         Gtr I
|  E   E    E   E   E      E     E      E   E  E   E    E
|----------------------------|-----------------------------|
|----------------------------|-----------------------------|
|---------------0------------|-----------------0-----------|
|-----------3-------3--------|--------------3------3-------|
|--6---6-------------------6-|---6------1------------------|
|----------------------------|--------------------------4--|
|
|         Gtr III  Gtr VI
|  E  +E    E   E   S   S  S     S  S   E   E  E   E    E
|-23-(23)--------------------|--------------------22---23--|
|-23-(23)-/20--20------------|-------------23-25-----------|
|------------------20--20-20-|-/22-22--22------------------|
|------------------20--20-20-|--24-24--24------------------|
|----------------------------|-----------------------------|
|----------------------------|-----------------------------|


    H         E       E  E   S  S  E  E  E     E  E  E  E  E  E   E  E
|--20-------^25---|--23-----------23-------|--22--------------------------|
|--13-------^18---|-----23--16-18----23-18-|-----23-18-23-11--9---8--9----|
|---5-------------|------------------------|------------------------------|
|---6-------------|------------------------|----------------------5--3----|
|---8-------------|---6------------6-------|---8-----------5-(5)-(5)(5)---|
|---5-------------|---0------------0-------|---2-----------7--5---4--2----|
|
|   E E E E   E E     E  E   S  S  E  E  E     E  E  E  E  E  E   E  E
|-----------------|-^11--------------------|------------------------------|
|-----------------|------------------------|-------------------------4----|
|---------5-------|-^-8-(8)--------8-------|---7-----------7--5---3-------|
|-------6-----6---|------6------------6----|------6-----6--8--6---5h=6----|
|-----8---------8-|-^-6-(6)--6h=8--------8-|---5-----8-----5-(5)--5-(5)---|
|---5-------------|------------------------|------------------------------|
|
|                   Gtr III
|   Q                 H                        H           Q      Q
|-/20-------------|--11--------------------|-/10--------------------------|
|-/20-------------|--13--------------------|-/11-----------6-----/8-------|
|-----------------|------------------------|---------------7-----/8-------|
|-----------------|------------------------|------------------------------|
|-----------------|------------------------|------------------------------|
|-----------------|------------------------|------------------------------|


 4/4
  Gtrs I, II
  E  E E E  E E E E    E  E E E E E E  E
|-1---------1-------|--1--------1--------|
|----4--------4-----|-----4-------4------|
|------0--------0---|-------0-------0----|
|-------------------|--------------------|
|-------------------|--------------------|
|-0------0--0-----0-|--0------0-0------0-|
|
| Gtr III                           Gtrs I
| Q.     E  E E E E    E  E E E E E E  E
|--------6----------|---------------8-10-|
|-8------8-/7-8-8-8-|--7--8-8-8-7-8-6-11-|
|-8--------/8-8-8-8-|--8--8-8-8-8-8------|
|-------------------|--------------------|
|-------------------|--------------------|
|-------------------|--------------------|
|
| Gtr IV
| W                    W
|-------------------|--------------------|
|-------------------|--------------------|
|-8-----------------|--8-----------------|
|-8-----------------|-(8)----------------|
|-6-----------------|-(6)----------------|
|-0-----------------|-(0)----------------|


  Gtr III       Gtrs I, II
   E      +E      E     E      E   E    E    E       E   E    E   E    E    E   E   E
|-11-----(11)------------------1------------------|--1-----------------1------------------|
|--8------(8)----------------------4--------------|------4------------------4-------------|
|-----------------0---------------------0---------|-----------0-----------------0---------|
|-------------------------------------------------|---------------------------------------|
|-------------------------------------------------|---------------------------------------|
|-----------------------0------0-------------0----|--0------------0----0------------0-----|
|
|IGtr VI
|  S   S   S  S   S  S  S   S  S S S S  S  S S  S    S S S S  S S S S  S  S S S S S S S
|-/3---4---3--4---3--4--3---4--1-3-1-3--1--3-1--3-|----------/3-4-3-4--1--3-1-3-----------|
|---------------/11-13-11--13----------/9-11-9-11-|--4-6-4-6--4-6-4-6--3--4-3-4-4-6-4-6---|
|-------------------------------------------------|-----------------------------5-7-5-7---|
|-------------------------------------------------|---------------------------------------|
|-------------------------------------------------|---------------------------------------|
|-------------------------------------------------|---------------------------------------|
|
|  Q..                      H                        H                 H
|--------------------------18---------------------|-16----------------10------------------|
|-16----------------------(16)--------------------|-11------------------------------------|
|--8-----------------------(8)--------------------|--8----------------(8)-----------------|
|-------------------------------------------------|-------------------18------------------|
|--1------------------------6---------------------|--1----------------(1)-----------------|
|--0-----------------------(0)--------------------|--0----------------(0)-----------------|


  Gtrs I, II
   E E E E E E E E     E  E E E   E  E E  E
|--3-------3-------|---3----------3----------|
|----6-------6-----|------6----------6-------|
|------0-------0---|--------0----------0-----|
|------------------|-------------------------|
|------------------|-------------------------|
|--0-----0-0-----0-|---0------0---0-------0--|
|
| Gtr VI
|  Q   Q   Q   Q       H          Q    E  E
|------------------|-------------------------|
|--8---------------|-------------/6----7--8--|
|--8---1---3---5---|---3---------/7----8--8--|
|------3---5---6---|---5---------------------|
|--6---------------|--------------5----8-(8)-|
|------------------|-------------------------|
|
| Gtr IV
|  W                   H          H
|-11---------------|-------------13----------|
|--8---------------|--11--------(11)---------|
|------------------|-------------19----------|
|--1---------------|--(1)--------(1)---------|
|-10---------------|-(10)-------(10)---------|
|--0---------------|--(0)--------(0)---------|


   E   E E E E E E E    E         E  E E  E       E  E   E
|--3---------3-------|--3-----------------3-----------------|
|------6-------6-----|------------6---------------6---------|
|--------5-------5---|---------------5---------------5------|
|--------------------|--------------------------------------|
|--------------------|--------------------------------------|
|--0-------0-0-----0-|--0--------------0--0--------------0--|
|
|  Q     Q   Q   Q      S     S   Q.      S   S   Q      E
|--------------------|--------------------------------------|
|--4-----6---8-------|-----------11------11-/13-(13)---(13)-|
|--5-----7---8---7---|-10---/12-(12)-------------12-----10--|
|----------------8---|----------------------------------12--|
|--------------------|--------------------------------------|
|--------------------|--------------------------------------|
|
|  H..                  H..
|--------------------|-13-----------------------------------|
|-13-----------------|--------------------------------------|
|--5-----------------|--5-----------------------------------|
|--------------------|--------------------------------------|
|-10-----------------|--8-----------------------------------|
|--0-----------------|--0-----------------------------------|


   E E E E E E E E     E   E E E E E E E
|--6-------6-------|---6---------6-------|
|----6-------6-----|-------6-------6-----|
|------0-------0---|---------0-------0---|
|------------------|---------------------|
|------------------|---------------------|
|--0-----0-0-----0-|---0-------0-0-----0-|
|
| Gtr VI
|  Q   E Q   Q         Q     Q   H
|------------6-----|---------------------|
|--3---4-3---6-----|---6-----6-----------|
|--3---5-3---------|---8-----7---3-------|
|------------------|-------------3-------|
|------------------|---------------------|
|------------------|---------------------|
|
| Gtr IV
|  W                  +H..
|-18---------------|-(18)----------------|
|------------------|---------------------|
|------------------|---------------------|
|--3---------------|--(3)----------------|
|--1---------------|--(1)----------------|
|--0---------------|--(0)----------------|


   E   E E E  E E E E     E E  E E   W
|-10---------10-------|--11--------^11----|
|------6--------6-----|-----8----8-^-8----|
|--------0--------0---|--------0---^-0----|
|---------------------|-------------------|
|---------------------|-------------------|
|--0-------0--0-----0-|---0---------------|
|
|  Q     Q    Q   Q       Q    Q     W
|---------------------|-/13---15----11----|
|--3-----4----6---8---|-/15---16----11----|
|---------------------|-------------------|
|--3-----5----6---8---|--18---17----13----|
|---------------------|-------------------|
|---------------------|-------------------|
|
|  H..                    Q    Q     W
|-22------------------|-------------------|
|---------------------|---8----3-----4----|
|---------------------|-------------------|
|--0------------------|---8----6-----5----|
|---------------------|--10----8-----6----|
|--0------------------|-------------------|


 4/4
     Gtr III
   W                                H
|-------------------------------|---3-----------------|
|-------------------------------|---4-----------------|
|-------------------------------|---------------------|
|-------------------------------|---------------------|
|-------------------------------|---------------------|
|-------------------------------|---------------------|
|
| Gtr I                           Gtrs IV, VI
|  S S E E      E  E   E S S  S     H        Q.
|-------------!-8----------4----|---------------------|
|-------------!-9--6b8-6-4-3-!4-|---------------------|
|-^2-4-8-8b10-!(8)-----7-5---!5-|---------------------|
|-^4---7------------------------|---5-------/6--------|
|-^0----------------------------|---6-------/8--------|
|-------------------------------|---0-------(0)-------|
|
| Gtr I                           Gtr I
|                                   E E E E  E  E E E
|-------------------------------|-^-1--------1--------|
|-------------------------------|-^-3-4------3--4-----|
|-------------------------------|-^12-5-0-------5-0---|
|-------------------------------|-------8---------8---|
|-------------------------------|-^-6-----6--6------6-|
|-------------------------------|-^-0-----0--0------0-|


  Gtr III                Gtr II
   H         H            E  E  E  E  E  E  E  E    E  E  E  E  E  E   E  E
|-11\--------4---------|----11-13-18-22-15-18-22-|----11-13-18-22-13--18-27-|
|--8\--------3---------|-11----------------------|-11-----------------------|
|----------------------|-------------------------|--------------------------|
|----------------------|--8----------------------|--------------------------|
|----------------------|--1----------------------|--------------------------|
|----------------------|--0----------------------|--7-----------------------|
|
|                        GtrGtr VI                             Gtr III
|  H         Q    Q       Q     Q     Q     Q       Q     Q     E  E   Q
|----------------------|--3----------------------|---------------------6----|
|-----------------8----|--4----------------------|--------------7--8---8----|
|--3--------/7---(7)---|-------------------------|--5-----3-----8-(8)-------|
|--5--------/6----8----|--------5-----6-----8----|--6-----5-----------------|
|----------------------|--------6-----8----10----|--------------------------|
|----------------------|-------------------------|--------------------------|
|
|  E  E E E  E E  E  E    E  E  E  E  E  E  E  E    E  E  E  E  E  E   E  E
|--1---------1---------|--1-----------1----------|--1-----------1-----------|
|--3--4------3-4-------|--3--4--------3--4-------|--3--4--------3--4--------|
|-----5-0------5--0----|-----5--3--------5--3----|-----5--3--------5---3----|
|-------8---------8----|--------5-----------5----|--------5------------5----|
|--6------6--6-------6-|--6--------6--6--------6-|--6--------6--6---------6-|
|--0------0--0-------0-|--0--------0--0--------0-|--0--------0--0---------0-|


  Gtr II
   E  E  E  E  E  E  E  E    E  E  E  E  E  E  E  E
|-------15-18-23-15-18-23-|-------15-18-23-17-18-25-|
|-13-16-------------------|-13-16-------------------|
|-------------------------|--------------------3--5-|
|-10----------------------|-10----------------------|
|-------------------------|-------------------------|
|--9----------------------|--9----------------------|
|
| Gtr VI                    Gtr III
|  E  E  E  E  E  E  E  E    E  E  E  E  E  E  E  E
|-------------------------|--2--3--3--6--2--3--6--6-|
|--4--4--6--6--8--9--8--4-|--3--4--4--8--3--4--6--8-|
|--5--5--7--7--8-10--8--3-|-------------------------|
|-------------------------|-------------------------|
|-------------------------|-------------------------|
|-------------------------|-------------------------|
|
| Gtr I
|  E  E  E  E  E  E  E  E    E  E  E  E  E  E  E  E
|--3-----------3----------|--3-----------3----------|
|--4--6--------4--6-------|--4--6--------4--6-------|
|-----7--0--------7--0----|-----7--0--------7--0----|
|--------5-----------5----|--------5-----------5----|
|--6--------6--6--------6-|--6--------6--6--------6-|
|--0--------0--0--------0-|--0--------0--0--------0-|


   E  E  E  E  E  E  E  E    E  E  E  E  E  E  E   E
|-------15-18-23-15-18-23-|-------15-18-23-17-18--25-|
|-13-18-------------------|-13-18--------------------|
|-------------------------|--------------------------|
|-10----------------------|-10-----------------------|
|-------------------------|--------------------------|
|--9----------------------|--9-----------------------|
|
| Gtr VI
|  Q     Q     Q     Q       Q     Q     Q     Q
|-10----11----13-----6----|--------------------------|
|-------------------------|--8-----9-----8----(8)----|
|--7-----8----10-----3----|--8----10-----8-----3-----|
|-------------------------|--------------------------|
|-------------------------|--------------------------|
|-------------------------|--------------------------|
|
|  E  E  E  E  E  E  E  E    E  E  E  E  E  E  E   E
|--3-----------3----------|--3-----------3-----------|
|--4--6--------4--6-------|--4--6--------4--6--------|
|-----7--5--------7--5----|-----7--5--------7--5-----|
|--------6-----------6----|--------6-----------6-----|
|--6--------6--6--------6-|--6--------6--6---------6-|
|--0--------0--0--------0-|--0--------0--0---------0-|


  Gtr II
   E  E  E  E  E  E  E  E    E  E  E  E  E  E  E  E
|-22----------18----------|-22----------18----------|
|----23-------------------|----23-------------------|
|-------22-------22-------|-------22-------22-------|
|----------24-------24-20-|----------24-------24-20-|
|-------------------------|--6----------------------|
|--0-----------7----------|--------------0----------|
|
| Gtr VI
|  H           H             H           H
|--1----------------------|--1----------------------|
|--3-----------3----------|--3-----------3----------|
|--------------3----------|--------------3----------|
|-------------------------|-------------------------|
|-------------------------|-------------------------|
|-------------------------|-------------------------|
|
| Gtr I
|  E  E  E  E  E  E  E  E    E  E  E  E  E  E  E  E
|--6-----------6----------|--6-----------6----------|
|--6--6--------6--6-------|--6--6--------6--6-------|
|-----7--0--------7--0----|-----7--0--------7--0----|
|--------8-----------8----|--------8-----------8----|
|--6--------6--6--------6-|--6--------6--6--------6-|
|--0--------0--0--------0-|--0--------0--0--------0-|


   E  E  E  E  E  E  E  E    E  E  E  E   H
|-------------10-11-13-15-|-16-18-20-22--23----|
|-------11-13-----------8-|--9-11-13-15--16----|
|-12-13--------7--8-10----|--------------------|
|--------8-10-------------|--------------------|
|-10-11-------------------|--------------------|
|-------------------------|--------------------|
|
|  H           Q     Q       W
|--6-----------4----------|--3-----------------|
|--6-----------4-----3----|--4-----------------|
|--7-----------1-----3----|--0-----------------|
|--------------------0----|--------------------|
|-------------------------|--------------------|
|-------------------------|--------------------|
|
|  E  E  E  E  E  E  E  E    E  E  E  E   H
|-10----------10----------|-11----------^11----|
|-11-11--3----11-11--3----|--8--8-----8-^-8----|
|----10--0-------10--0----|-----8--0--8-^-8----|
|-------------------------|-------------^-5----|
|--6--------6--6--------6-|--6-----6----^-6----|
|--0--------0--0--------0-|--0-----------------|


  Gtr I
  E  E  E   E  E E E E    E E E E  E E E E
|----------------------|-------------------|
|--------------8-----8-|-^9-----9-^6-----6-|
|----0-(0)-(0)---0-----|----8--------4-----|
|---/5--6--/8--8---8---|-^9---9---^6---6---|
|-6--------------------|-------------------|
|----------------------|-------------------|
|
| W                       W
|----------------------|-------------------|
|----------------------|-------------------|
|----------------------|-------------------|
|----------------------|-------------------|
|----------------------|-------------------|
|----------------------|-------------------|


  E  E  E   E  E E  E   E     E  E  E E  E E  E E
|--------------------------|----------------------|
|--------------8--------8--|-^9-------9-^6------6-|
|----0-(0)-(0)---0---------|-----8---------4------|
|---/5--6--/8--8----8------|-^9-----9---^6----6---|
|-6------------------------|----------------------|
|--------------------------|----------------------|
|
| Gtr II
| Q     Q      E E  E   E     E  E  Q    Q    Q
|--------------3-------13--|-19-23-----------13---|
|-8----11--------9------8--|--4----21----6--------|
|--------------0---15-(15)-|--4--8-----------10---|
|-------8--------6---------|--------9----6--------|
|-6----(6)---------13--13--|--2--4--2-------------|
|-0----(0)-----4-2--0--(0)-|-------------5----2---|


  Gtr II
  E  E   E   E    E   E  E  E    Q    Q    Q    Q      Q      Q
|---15----------^23-----------|-19---23--------13---|-18----^27--------------|
|---------------^20--------20-|-21---24---24---21---|-------^24--------------|
|----0--(0)-(0)------12-------|-----------25--------|------------------------|
|---17--18--20--^20-----20----|---------------------|------------------------|
|-6---------------------------|--2----6----4--------|------------------------|
|-0-(0)-(0)-(0)-^(0)----------|-----------------2---|--0----^(0)-------------|
|
| Gtr I
| E  E   E   E    E   E  E  E    E E  E E  E E  E E    E  E   E   E  E E E E
|-----------------------------|---------------------|------------------------|
|-----------------8---------8-|-^9------9-^6------6-|----------------8-----8-|
|----0--(0)-(0)-------0-------|----8---------4------|-----0--(0)-(0)---0-----|
|---/5---6--/8----8------8----|-^9----9---^6----6---|----/5---6--/8--8---8---|
|-----------------------------|---------------------|------------------------|
|-0---------------------------|---------------------|--0---------------------|
|
| Gtr IV
| W                              Q    Q    Q    Q      H             Q   Q
|-----------------------------|---------------------|------------------------|
|-----------------------------|--9---12----9----6---|--8-----------------8---|
|-----------------------------|---------------------|------------------------|
|-----------------------------|--9---13----9----6---|--8-----------------8---|
|-----------------------------|---------------------|------------------------|
|-----------------------------|---------------------|--0-----------------0---|


   S  S   S   S   S   S   S   S   S  S   S   S   S   S   S   S
|-23-21--19--18--21--19--18--16--19-16----------16--19--21--25---|
|---------------------------------------18--15-------------------|
|----------------------------------------------------------------|
|----------------------------------------------------------------|
|--2-(2)-(2)-(2)--6--(6)-(6)-(6)--4-(4)-(4)-(4)------------------|
|------------------------------------------------2--(2)-(2)-(2)--|
|
|  E      E       E       E       E      E       E       E
|----------------------------------------------------------------|
|-^9----------------------9------^6----------------------6-------|
|---------8------------------------------4-----------------------|
|-^9--------------9--------------^6--------------6---------------|
|----------------------------------------------------------------|
|----------------------------------------------------------------|
|
|  Q              Q               Q              Q
|----------------------------------------------------------------|
|--9-------------12---------------9--------------6---------------|
|----------------------------------------------------------------|
|--9-------------13---------------9--------------6---------------|
|--2-------------(2)---------------------------------------------|
|---------------------------------5-------------(5)--------------|


  Gtr II  Gtr I             Gtrs I, VI
   E  +E   E   E  E E E E    E E E E  E E E E
|-23-(23)---------6-----6-|-------------------|
|-23-(23)-----------4-----|--4-----4--3-----3-|
|--------------3------3---|----4--------1-----|
|----------3--------------|------6--------3---|
|--6--(6)-----------------|-------------------|
|--0--(0)-----------------|-------------------|
|
| Gtr I           GtrsGtr IIGtrGtr IIGtrGtr III
|  E   E   E   E  E E E E    E E E E  E E E E
|-------------------------|-------------------|
|-----------------8-----8-|-^9-----9-^6-----6-|
|------0--(0)-(0)---0-----|----8--------4-----|
|-----/5---6--/8--8---8---|-^9---9---^6---6---|
|-------------------------|-------------------|
|--0----------------------|-------------------|
|
| Gtrs II, IV
|  H              H          H        H
|-------------------------|-------------------|
|--4----------------------|--9-------11-------|
|-------------------------|-------------------|
|--5----------------------|--9-------12-------|
|-------------------------|-------------------|
|--0----------------------|--0--------5-------|


  E  E   E   E  E E E E    E E  E  E  E E  E  E
|---------------6-----6-|-----------------------|
|-----------------4-----|--4-------4--3-------3-|
|-8-(8)------3------3---|----4----------1-------|
|----1---3--------------|-------6----------3----|
|-6---------------------|-----------------------|
|-----------------------|-----------------------|
|
|I              GtGtr I IIGtrGtr IIIIGtrGtr IIII
| E  E   E   E  E E E E    E E  E  E  E E  E  E
|-----------------------|-----------------------|
|---------------8-----8-|-^9-------9-^6-------6-|
|----0--(0)-(0)---0-----|----8----------4-------|
|---/5---6--/8--8---8---|-^9----9----^6----6----|
|-----------------------|-----------------------|
|-0---------------------|-----------------------|
|
| H             H          Q    Q     Q    Q
|-----------------------|-----------------------|
|-8---------------------|--9---12-----9----6----|
|-----------------------|-----------------------|
|-5---------------------|--9---13-----9----6----|
|-----------------------|--2---(2)--------------|
|-0---------------------|-------------5---(5)---|


  Gtrs IGtrs I, II
  E  E   E   E   E E E E    E E  E E  E E E E
|----------------6-----6-|--------------------|
|------------------4-----|--4------4--3-----3-|
|-8-(8)------3-------3---|----4---------1-----|
|----1---3---------------|-------6--------3---|
|-6----------------------|--------------------|
|------------------------|--------------------|
|
| Gtr I
| E  E   E   E   E E E E    E E  E E  E E E E
|------------------------|--------------------|
|---------------^8-----8-|-^9------9-^6-----6-|
|----0--(0)-(0)----0-----|----8---------4-----|
|---/5---6--/8--^8---8---|-^9----9---^6---6---|
|------------------------|--------------------|
|-0----------------------|--------------------|
|
| Gtrs II, IV                   Gtrs III, IV
| H              H          Q    Q    Q   Q
|------------------------|--------------------|
|-4----------------------|--9---12----9---6---|
|------------------------|--------------------|
|-5----------------------|--9---13----9---6---|
|------------------------|--------------------|
|-0----------------------|--------------------|


  Gtrs I, VI
   E E E E  E  E E  E    E E E E  E  E E E
|--7-4---7-13--7---13-|--4--------6--9-6-----|
|--0---3----6----3--6-|----6---6---------6---|
|----1---4-----4------|------4---------------|
|------0---------0----|----------------------|
|---------------------|----------------------|
|---------------------|----------------------|
|
|  E E E E  E  E E  E    E E E E  E  E E E
|---------------------|--------------4-------|
|-^3-----3-^0-------0-|-^6--------7----7-----|
|----1---------1------|----4---4---------4---|
|-^3---3---^3----3----|-^6---6----6----------|
|---------------------|----------------------|
|-^0------------------|----------------------|
|
| Gtrs II, IV
|  H        H            H        Q    Q
|---------------------|----------------4-----|
|--3--------0---------|--6-------(6)---------|
|---------------------|----------11----4-----|
|--3-------(3)--------|--6-------(6)---------|
|--2-------(2)--------|----------------------|
|---------------------|--0-------(0)---5-----|


 3/4
  Gtrs I, II                                                      Gtrs I, III
    E  E   E   E   E   E   E  E   E   E    E  E    E  E   E E E E  E E E E E E
|-^11---------11---------^10---------10---------|-^8--------8------7-6-----6h8-|
|------9-----------9----------9------------9----|-----6-------6--------8-9-----|
|---------10----------10---------10----------10-|-^0------0-----0----------7-8-|
|-^-3-(3)-(3)------------^-0-(0)-(0)-(0)--------|----------------------8-9-----|
|-----------------------------------------------|-^3---------------------------|
|-^-0-(0)-(0)-(0)-(0)---------------------------|------------------------------|
|
| Gtr VI
|   H              E   Q      E   E   E    E  E    E  S S E E E E  E E E E E E
|--/4--------------6---3------1---6--10--/13-15-|-11---------------------------|
|-----------------------------------------------|-----9-----6----------8-6-4-3-|
|-----------------------------------------------|-------8-5---0-1-/4-3---------|
|-----------------------------------------------|------------------------------|
|-----------------------------------------------|------------------------------|
|-----------------------------------------------|------------------------------|
|
| Gtr IV
|   H              Q       H                       H.
|-----------------------------------------------|--3---------------------------|
|---4----------------------9--------------------|--4---------------------------|
|---3---------------------10--------------------|------------------------------|
|-----------------------------------------------|--0---------------------------|
|---1----------------------5--------------------|------------------------------|
|---0-------------------------------------------|--4---------------------------|


  Gtr I
   E   E   E   E   E   E  E E E E E E    E  E   E   E   E   E  E    E     E   E    E   E   E     E
|-^6-----------6----------6-----6-----|--6----------6----------4--------------4------------------7-----|
|-^6---4-----------4--------4-----4---|-----4-----------4-----------4--------------4---6---7----(7)----|
|----------0-----------0------0-----0-|---------4-----------4-------------4----------------------------|
|-------------------------------------|----------------------------------------------------------------|
|-------------------------------------|----------------------------------------------------------------|
|-^0--(0)-(0)-(0)-(0)-(0)-------------|--0-(0)-(0)-(0)-(0)-(0)-0---(0)---(0)-(0)-----------------------|
|
|  H               Q      Q   Q   Q      Q      E   E   E   E  E    E     E   E    E   E   E     E
|-----------------------------3---4---|------------------------4---------------------------------------|
|-/4----------------------4-----------|--4------------------9--6----6----------------------------------|
|-------------------------0-----------|--4--------------8---8-------6-----6--------4---3---4-----3-----|
|-/1----------------------------------|---------4--/9---9-----------------6---6----6---4---------------|
|-------------------------------------|---------6--/9-------------------------8------------------------|
|-------------------------------------|----------------------------------------------------------------|
|
| Gtr III
|  H.                     H              Q      Q       Q      E..     Q         E   E   E    E
|-/6----------------------3-----------|-11-----11------11------9-----------------7---4---6---11--------|
|-/4----------------------4-----------|-/4------4--------------4---------------------------------------|
|-------------------------------------|----------------13----------------------------------------------|
|-------------------------------------|----------------------------------------------------------------|
|-------------------------------------|----------------------------------------------------------------|
|-------------------------------------|----------------------------------------------------------------|


 3/4
  Gtr II
   E   E   E   E   E E  E   E   E   E   E  E
|-11----------11-------11----------11--------|
|-----11----------11-------11----------11----|
|---------12---------8---------12----------8-|
|--------------------------------------------|
|--------------------------------------------|
|--0--(0)-(0)-(0)-------0--(0)-(0)-(0)-------|
|
| Gtr I                Gtrs I, VI
|  E   E   E   E   E E  E   E   E   E   E  E
|--6-----------6--------6-------3---6------3-|
|------4-----------4--------4-----------4----|
|----------0---------0----------0----------0-|
|--------------------------------------------|
|--------------------------------------------|
|--------------------------------------------|
|
| Gtr IV
|  H.                   Q       Q       Q
|--6-------------------(6)------6-------7----|
|--4--------------------8-------4------(4)---|
|--0-------------------(0)-----(0)-----(0)---|
|--------------------------------------------|
|--------------------------------------------|
|--0-------------------(0)-----(0)-----(0)---|


   E   E   E   E   E  E  E   E   E   E  E E E  E
|-11----------11---------9-----------7---------7--|
|-----11----------11---------9----------4-6-7--7--|
|---------11---------11----------8----------------|
|---------------------------------------1-3-4--9--|
|-------------------------------------------------|
|--0--(0)-(0)-(0)--------0--(0)-(0)-(0)-0-2-3--8--|
|
|                                       Gtrs I, III, VI
|  E   E   E   E   E  E  E   E   E   E  E E E  E
|--6-----------6---------4---------------------7--|
|------4-----------4--7--6---6----------4-6-7-(7)-|
|----------4----------4------6---6------4-3-4--3--|
|------------------9-------------6---6------------|
|-------------/9---------------------8------------|
|-------------------------------------------------|
|
|  H.                    H              Q   Q
|--7--------------------11------------------------|
|--4--------------------(4)-------------4---7-----|
|--4--------------------(4)-------------4---8-----|
|-------------------------------------------------|
|---------------------------------------2---------|
|--0--------------------(0)-----------------3-----|


 3/4
  Gtrs I, II
   E   E   E   E   E E  E   E   E   E   E  E
|-11----------11-------11----------11--------|
|-----11----------11-------11----------11----|
|---------12---------8---------12----------8-|
|--------------------------------------------|
|--------------------------------------------|
|--0--(0)-(0)-(0)-------0--(0)-(0)-(0)-------|
|
| Gtrs I, VI
|  E   E   E   E   E E  E   E   E   E   E  E
|--6-----------6-----3--6-----------6------3-|
|------4-----------4--------4-----------4----|
|--0-------0---------0----------0----------0-|
|--8--(8)------------------------------------|
|--------------------------------------------|
|--------------------------------------------|
|
| Gtr IV
|  H.                   Q       Q       Q
|--6-------------------(6)-----(6)------7----|
|--4--------------------8-------4------(4)---|
|--0-------------------(0)-----(0)-----(0)---|
|--------------------------------------------|
|--------------------------------------------|
|--0-------------------(0)-----(0)-----(0)---|


   E   E   E   E   E  E  E   E   E   E  E E E  E
|-11----------11---------9-----------7---------7--|
|-----11----------11---------9----------4-6-7--7--|
|---------11---------11----------8----------------|
|---------------------------------------1-3-4--9--|
|-------------------------------------------------|
|--0--(0)-(0)-(0)--------0--(0)-(0)-(0)-0-2-3--8--|
|
|  E   E   E   E   E  E  E   E   E   E  E E E  E
|--6-----------6---------4-----------4---------7--|
|------4-----------4--7--6---6----------4-6-7-(7)-|
|----------4----------4------6---6------4-3-4--3--|
|------------------9-------------6---6------------|
|-------------/9---------------------8------------|
|-------------------------------------------------|
|
|  H.                    H              Q   Q
|--7--------------------11--------------7---4-----|
|--4--------------------(4)-------------4---7-----|
|--4--------------------(4)-------------4---8-----|
|-------------------------------------------------|
|---------------------------------------2---------|
|--0--------------------(0)-----------------3-----|


 3/4
  Gtr I                                             Gtrs I, II
   E  E   E   E   E   E  E     E   E   E   E   E     E  E   E   E   E  E  E E  E  E  E E
|-11---------11---------10------------10----------|--8----------8---------7-6--------6h8-|
|-----9-----------9------------9-----------9------|-----6-----------6----------8--9------|
|--------10----------10-----------10----------10--|--0------0----------0-----------------|
|------------------------0----(0)-(0)-(0)---------|--------------------------------------|
|-------------------------------------------------|--------------------------------------|
|--0-(0)-(0)-(0)-(0)------------------------------|--4-(4)-(4)-(4)-----------------------|
|
| Gtr I                                                                  Gtr III
|  E  E   E   E   E   E  S  S  E   E   E   E   E     E  E   E   E   Q     E E  E  E  E E
|-^3--------------------^1-!1--1--------------^3--|----------------------/7-6--------6-8-|
|---------------------------------------------^3--|-------------9--------/9-8--8--9--8-9-|
|-^8--8---8--10---8---1-^7-!7--7--10---7---1--^0--|--3--8---3------------------8-10------|
|-^5--5---5-------5---0-^0-!0--0---0---0---0--^0--|--------------------------------------|
|-^6----------6-----------------------------------|--------------------------------------|
|-------------------------------------------------|--------------------------------------|
|
| Gtr IV     Gtr II                                                      Gtr VI
|  Q      E   E   E   E  E     E   E   E   E   E     E  E   E   E   E  E  E E  E  E  E E
|--6---------23---------22------------22----------|-20---------20------------------------|
|--9-------------21-----------21----------21------|----18----------18------------------9-|
|-10-----22----------22-----------22----------22--|-12-----12---------12------12--8-10---|
|--5---------------------0----(0)-(0)-(0)-(0)-(0)-|-----------------------6-8------------|
|-13----------------------------------------------|--------------------------------------|
|--0------0--(0)-(0)------------------------------|--4-(4)-(4)-(4)-----------------------|


  Gtrs I, II                                                                      Gtrs I, II, III
   E  E   E   E   E   E   E  E   E E E E    E   E   E   E   E   E   E  E   E   E   E  E  E  E
|--6----------6-----------6--------6-----|--6-----------6-----------4----------4------------7-----|
|-----4-----------4----------4-------4---|------4-----------4----------4-----------4--6--7-(7)----|
|---------0-----------0----------0-----0-|----------4-----------4----------4----------------------|
|----------------------------------------|--------------------------------------------------------|
|----------------------------------------|--------------------------------------------------------|
|--0-(0)-(0)-(0)-(0)-(0)-----------------|--0--(0)-(0)-(0)-(0)-(0)--0-(0)-(0)-(0)-----------------|
|
|  E  E   Q       E   E   Q      Q          H               Q       H
|-11-11----------11--13--14----/15-------|--------------------------------------------------------|
|-11-11----------11------15--------------|-16----------------------12-----------------------------|
|--------------------13------------------|-15-----------------------8-----------------------------|
|----------------------------------------|--------------------------------------------------------|
|----------------------------------------|--------------------------------------------------------|
|----------------------------------------|--------------------------------------------------------|
|
| Gtr VI
|  E  E   E   E   E   E   Q      Q          Q       Q       Q       Q      Q       E  E  E  E
|-/6--5---4---3---2---3------------------|-----------------11-------9----------------------19-----|
|-------------------------4/----16-------|--4/-----12-----------------------------16-18-19--------|
|----------------------------------------|-----------------------------------------4--3--4--3-----|
|----------------------------------------|--------------------------------------------------------|
|----------------------------------------|--------------------------------------------------------|
|----------------------------------------|--------------------------------------------------------|


 2/4
  W H
|--------|
|--------|
|--------|
|--------|
|--------|
|--------|


 3/4
  Gtr II
   E   E   E   E   E  E  E   E   E   E   E   E
|-11----------11--------11----------11---------|
|-11--11------11--11----11--11------11--11-----|
|------8--12-------8--8------8--12-------8---8-|
|---------13---------13---------13----------13-|
|----------------------------------------------|
|--0--(0)-(0)-(0)--------0--(0)-(0)-(0)--------|
|
| Gtr V
|  E   E   E   E   E  E  E   E   E   E   E   E
|--6-----------6---------6-----------6---------|
|------4-----------4---------4-----------4-----|
|---------12---------12---------12----------12-|
|----------------------------------------------|
|----------------------------------------------|
|----------------------------------------------|
|
| Gtr IV
|  H.                    Q       Q       Q
|--6--------------------(6)------6-------7-----|
|--4---------------------8-------4------(4)----|
|--0--------------------(0)-----(0)-----(0)----|
|----------------------------------------------|
|----------------------------------------------|
|--0--------------------(0)-----(0)-----(0)----|


   E   E   E   E   E  E  E   E   E   E  E E E  E
|-11----------11---------9-----------7---------7--|
|-11--11------11--11-----9---9-------9--4-6-7--7--|
|------8--11-------8-11------8---8----------------|
|---------13---------13----------9---1--1-3-4--9--|
|-------------------------------------------------|
|--0--(0)-(0)-(0)--------0--(0)-(0)-(0)-0-2-3--8--|
|
|  E   E   E   E   E  E  E   E   E   E  E E E  E
|--6-----------6---------4-----------4---------7--|
|------4-----------4---------4----------4-6-7-(7)-|
|---------16---------16---------16----------------|
|-------------------------------------------------|
|-------------------------------------------------|
|-------------------------------------------------|
|
|  H.                    H              Q   Q
|--7--------------------11------------------------|
|--4--------------------(4)-------------4---7-----|
|--4--------------------(4)-------------4---8-----|
|-------------------------------------------------|
|---------------------------------------2---------|
|--0--------------------(0)-----------------3-----|


 3/4
  Gtrs I, II
   E   E   E   E   E  E   E   E    E   E   E   E
|-11----------11---------11-----------11---------|
|-11--11------11--11-----11--11-------11--11-----|
|------8--12-------8--8-------8---12-------8---8-|
|---------13---------13-----------13----------13-|
|------------------------------------------------|
|--0--(0)-(0)-(0)---------0--(0)--(0)-(0)--------|
|
| Gtr V
|  E   E   E   E   E  E   E   E    E   E   E   E
|--6-----------6----------6------------6---------|
|------4---8-------4--8-------4----8-------4---8-|
|------------------------------------------------|
|---------13---------13-----------13----------13-|
|------------------------------------------------|
|------------------------------------------------|
|
| Gtr IV
|  H.                     Q        Q       Q
|-18--------------------(18)-----(18)-----19-----|
|--4----------------------8--------4------(4)----|
|--0---------------------(0)------(0)-----(0)----|
|------------------------------------------------|
|------------------------------------------------|
|--0---------------------(0)------(0)-----(0)----|


   E   E   E   E   E  E  E   E   E   E   E E  E  E
|-11----------11---------9-----------7-----------7--|
|-11--11------11--11-----9---9-------9---4-6--7--7--|
|------8--11-------8-11------8---8------------------|
|---------13---------13----------9---1---1-3--4--9--|
|---------------------------------------------------|
|--0--(0)-(0)-(0)--------0--(0)-(0)-(0)--0-2--3--8--|
|
|  E   E   E   E   E  E  E   E   E   E   E E  E  E
|--6-------7---6------7--4-------7--16-----------7--|
|------4-----------4---------4-----------4-6--7-(7)-|
|----------4----------4----------4-------4-3--4--3--|
|---------------------------------------------------|
|---------------------------------------------------|
|---------------------------------------------------|
|
|  H.                    H               Q    Q
|-21--------------------23--------------------------|
|--4--------------------(4)-------------16---19-----|
|--4--------------------(4)-------------16---20-----|
|---------------------------------------------------|
|----------------------------------------2----------|
|--0--------------------(0)-------------------3-----|


 3/4
  Gtrs I, II
   E   E   E   E   E  E   E   E    E   E   E   E
|-11----------11---------11-----------11---------|
|-11--11------11--11-----11--11-------11--11-----|
|------8--12-------8--8-------8---12-------8---8-|
|---------13---------13-----------13----------13-|
|------------------------------------------------|
|--0--(0)-(0)-(0)---------0--(0)--(0)-(0)--------|
|
|  E   E   E   E   E  E   E   E    E   E   E   E
|--6-----------6----------6------------6---------|
|--8---4-------8---4------8---4--------8---4-----|
|-----15--12------15-12------15---12------15--12-|
|---------13---------13-----------13----------13-|
|------------------------------------------------|
|------------------------------------------------|
|
| Gtr IV
|  H.                     Q        Q       Q
|-18--------------------(18)-----(18)-----19-----|
|--4----------------------8--------4------(4)----|
|--0---------------------(0)------(0)-----(0)----|
|------------------------------------------------|
|------------------------------------------------|
|--0---------------------(0)------(0)-----(0)----|


   E   E   E   E   E  E  E   E   E   E   E E  E  E
|-11----------11---------9-----------7-----------7--|
|-11--11------11--11-----9---9-------9---4-6--7--7--|
|------8--11-------8-11------8---8------------------|
|---------13---------13----------9---1---1-3--4--9--|
|---------------------------------------------------|
|--0--(0)-(0)-(0)--------0--(0)-(0)-(0)--0-2--3--8--|
|
|  E   E   E   E   E  E  E   E   E   E   E E  E  E
|--6-------7---6------7--4-------7---4---2-4--6--7--|
|--8---4---9---8---4--9--6---4---9---6---4-6--7-(7)-|
|-----15----------15--------16----------------------|
|---------13---------13-----------------------------|
|---------------------------------------------------|
|---------------------------------------------------|
|
|  H.                    H               Q    Q
|-21--------------------23--------------------------|
|--4--------------------(4)-------------16---19-----|
|--4--------------------(4)-------------16---20-----|
|---------------------------------------------------|
|----------------------------------------2----------|
|--0--------------------(0)-------------------3-----|


 3/4
  Gtrs I, II, V
   E      E     E     E     E     E      E      E      E      E     E      E
|-11-----------------11-----------------11-------------------11--------------|
|-11-----11----------11----11-----------11-----11------------11----11--------|
|---------8----12-----------8-----8-------------8-----12------------8------8-|
|---------------5----------------17--------------------5------------------17-|
|----------------------------------------------------------------------------|
|----------------------------------------------------------------------------|
|
| Gtr VI
|  S   S  S  S  S  S  S  S  S  S  S  S   S   S  S  S   S   S  S  S  S   S  S
|-11--11-11-11-10-11-11-11-10-11-11-11--14--15-15-15--14--15-15-15-14--15-15-|
|----------------------------------------------------------------------------|
|-12--12-12-12-11-12-12-12-11-12-12-12--13--15-15-15--13--15-15-15-13--15-15-|
|----------------------------------------------------------------------------|
|----------------------------------------------------------------------------|
|----------------------------------------------------------------------------|
|
| Gtr IV
|  H.                                    Q             Q            Q
|-18-----------------------------------(18)----------(18)----------19--------|
|--4-------------------------------------8-------------4-----------(4)-------|
|--0------------------------------------(0)-----------(0)----------(0)-------|
|----------------------------------------------------------------------------|
|----------------------------------------------------------------------------|
|--0------------------------------------(0)-----------(0)----------(0)-------|


   E   E  E  E     E     E     E      E     E     E     E  E  E  E
|-11--------11-----------------9------------------7--------------7--|
|-11--11----11----11-----------9------9-----------4-----4--6--7--7--|
|------8-11--------8----11------------8-----8-----------------------|
|---------9--------------9------------------9-----------1--3--4--9--|
|-------------------------------------------------------------------|
|-------------------------------------------------------0--2--3--8--|
|
|                                                      Gtrs III, VI
|  Q.        S  S  S  S  S  S  S   S  S  S  S  S  S  S  E  E  E  E
|-19--------------------------16--16-------------------11-13-14-19--|
|-----------------------19-19-18--18-18-18--------------------------|
|-20--------------20-20-20-20--------18-18-18-18--------4--3--4--3--|
|-----------21-21-21-21--------------------18-18-18-18--------------|
|-----------21-21--------------------------------20-20--------------|
|-------------------------------------------------------------------|
|
|  H.                          H                        Q     Q
|-21--------------------------23------------------------------------|
|--4--------------------------(4)----------------------16----19-----|
|--4--------------------------(4)----------------------16----20-----|
|-------------------------------------------------------------------|
|-------------------------------------------------------2-----------|
|--0--------------------------(0)-----------------------------3-----|


 3/4
  Gtrs I, II, V
   E      E     E     E     E     E      E      E      E      E     E      E
|-11-----------------11-----------------11-------------------11--------------|
|-11-----11----------11----11-----------11-----11------------11----11--------|
|---------8----12-----------8-----8-------------8-----12------------8------8-|
|---------------5----------------17--------------------5------------------17-|
|----------------------------------------------------------------------------|
|----------------------------------------------------------------------------|
|
| Gtr VI
|  S   S  S  S  S  S  S  S  S  S  S  S   S   S  S  S   S   S  S  S  S   S  S
|-11--11-11-11-10-11-11-11-10-11-11-11--14--15-15-15--14--15-15-15-14--15-15-|
|----------------------------------------------------------------------------|
|-12--12-12-12-11-12-12-12-11-12-12-12--13--15-15-15--13--15-15-15-13--15-15-|
|----------------------------------------------------------------------------|
|----------------------------------------------------------------------------|
|----------------------------------------------------------------------------|
|
| Gtr IV
|  H.                                    Q             Q            Q
|-18-----------------------------------(18)----------(18)----------19--------|
|--4-------------------------------------8-------------4-----------(4)-------|
|--0------------------------------------(0)-----------(0)----------(0)-------|
|--8-------------------------------------------------------------------------|
|----------------------------------------------------------------------------|
|--0------------------------------------(0)-----------(0)----------(0)-------|


   E   E  E  E     E     E     E      E     E     E     E  E  E  E
|-11--------11-----------------9------------------7--------------7--|
|-11--11----11----11-----------9------9-----------4-----4--6--7--7--|
|------8-11--------8----11------------8-----8-----------------------|
|---------9--------------9------------------9-----------1--3--4--9--|
|-------------------------------------------------------------------|
|-------------------------------------------------------0--2--3--8--|
|
|                                                               Gtrs III, VI
|  Q.        S  S  S  S  S  S  S   S  S  S  S  S  S  S  E  E  E  E
|-18--------------------------16--16-------------------11-13-14-19--|
|-----------------------19-19-18--18-18-18--------------------------|
|-18--------------20-20-20-20--------18-18-18-18--------4--3--4--3--|
|-----------21-21-21-21--------------------18-18-18-18--------------|
|-----------21-21--------------------------------20-20--------------|
|-------------------------------------------------------------------|
|
|  H.                          H                        Q     Q
|-21--------------------------23------------------------------------|
|--4--------------------------(4)----------------------16----19-----|
|--4--------------------------(4)----------------------16----20-----|
|-------------------------------------------------------------------|
|-------------------------------------------------------2-----------|
|--0--------------------------(0)-----------------------------3-----|


  Gtr I
   E E E E E E   W
|-^3-----3-----|------|
|-^1-1-----1---|------|
|------0-----0-|------|
|--------------|------|
|-^3-----------|------|
|--------------|------|


  Gtr VI
   W                          H
|-11------------------------/15------------|
|------------------------------------------|
|------------------------------------------|
|------------------------------------------|
|------------------------------------------|
|------------------------------------------|
|
| Gtr III
|  H.                 E  E    H
|-/3------------------3--4----3------------|
|-/1------------------1--1----4------------|
|------------------------------------------|
|------------------------------------------|
|------------------------------------------|
|------------------------------------------|
|
| Gtrs I, II, IV
|  E   E   E   E  E E E  E    E   E   E  E
|--3-----------3------3-----------3--------|
|------1----------4------1------------4----|
|----------0------5-0---------0-------5--0-|
|------------------------------------------|
|--3------------------3--------------------|
|--0--(0)-(0)-(0)-----0-(0)--(0)-(0)-(0)---|


                         <
   E  H              E   H.
|-18-17----------------/22--------------------|
|---------------------------------------------|
|---------------------------------------------|
|---------------------------------------------|
|---------------------------------------------|
|---------------------------------------------|
|
|  Q      Q       Q      H               Q
|-/3-----/3------/3------1---------------5----|
|-/4-----/4------/4------1---------------3----|
|---------------------------------------------|
|---------------------------------------------|
|---------------------------------------------|
|---------------------------------------------|
|
|  E  E   E   E   E  E   E   E   E   E   E  E
|--3----------3----------1-----------1--------|
|-----1-----------1----------1-----------1----|
|---------2----------2-----------2----------2-|
|------------------------0--(0)-(0)-(0)-(0)---|
|--0-(0)-(0)-(0)-(0)--------------------------|
|---------------------------------------------|


  H.=H
   H                H
|-13---------------10--------|
|----------------------------|
|----------------------------|
|----------------------------|
|----------------------------|
|----------------------------|
|
| Gtr III
|  H                H
|--6---------------/4--------|
|--3---------------/3--------|
|----------------------------|
|----------------------------|
|----------------------------|
|----------------------------|
|
| Gtrs I, II, IV
|  E  E   E   S  S  E  E E E
|--1-------------------------|
|-----1-------------3------3-|
|---------1------------1-----|
|-------------1h=3-(3)---3---|
|--1-(1)-(1)-(1)-----------1-|
|----------------------------|


   H            E.     E      H              E.  S  S   W
|-11--------------------------------------------16-13--15----|
|--------------/4------8------1------------------------16----|
|--------------/5------8------1------------------------------|
|------------------------------------------------------------|
|------------------------------------------------------------|
|------------------------------------------------------------|
|
|  H            H                     H          S  S   W
|--3---------------------------------------------4--1---3----|
|--4---------------------------------------------3------4----|
|---------------------------------------------------3--------|
|------------------------------------------------------------|
|------------------------------------------------------------|
|------------------------------------------------------------|
|
|                                         Gtr I Gtrs I, II
|  E  E   E  E  E   E     S   S   E   Q    Q     S  S   W
|---------------------------------4-------^4-----4--1---3----|
|--4----------------------3---6-------3---^3-----3--3---4----|
|-----1-------------3-------------1--(1)---------3--3---3----|
|---------1-----3---------0h==3--(3)-------------------------|
|--3-(3)-(3)-3------1---------------------^1-----------------|
|---------------2--(2)---(2)-(2)-----------------0-(0)--0----|



Duration Legend
---------------
W - whole; H - half; Q - quarter; E - 8th; S - 16th; T - 32nd; X - 64th; a - acciaccatura
+ - note tied to previous; . - note dotted; .. - note double dotted
Uncapitalized letters represent notes that are staccato (1/2 duration)
Irregular groupings are notated above the duration line
Duration letters will always appear directly above the note/fret number it represents the
duration for.  Duration letters with no fret number below them represent rests.  Multi-
bar rests are notated in the form Wxn, where n is the number of bars to rest for.  Low
melody durations appear below the staff

Tablature Legend
----------------
 h   - hammer-on
 p   - pull-off
 b   - bend
 pb  - pre-bend
 r   - bend release (if no number after the r, then release immediately)
 /\  - slide into or out of (from/to "nowhere")
 s   - legato slide
 S   - shift slide
<n> - natural harmonic
[n]  - artificial harmonic
n(n) - tapped harmonic
 ~   - vibrato
 tr  - trill
 T   - tap
 TP  - trem. picking
 PM  - palm muting
\n/  - tremolo bar dip; n = amount to dip
 \n  - tremolo bar down
 n/  - tremolo bar up
/n\  - tremolo bar inverted dip
 =   - hold bend; also acts as connecting device for hammers/pulls
 <> - volume swell (louder/softer)
 x   - on rhythm slash represents muted slash
 o   - on rhythm slash represents single note slash

Misc Legend
-----------
 |  - bar
||  - double bar
||o - repeat start
o|| - repeat end
*|  - double bar (ending)
 :  - bar (freetime)
 $  - Segno
 &  - Coda
Tempo markers - <E/E./Q/Q./H/H.> = BPM(8/16=s8/s16), where s8 = swing 8ths, s16 = swing 16ths


** Generated using Power Tab Editor by Brad Larsen: The Official Power Tab Web Site