#----------------------------------PLEASE NOTE---------------------------------#
#This file is the author's own work and represents their interpretation of the #
#song. You may only use this file for private study, scholarship, or research. #
#------------------------------------------------------------------------------#

REUNION OF SOULS
As recorded by BLOOD VACUUM
(From the 2010 Album TEMPORAL STORM II)

Transcribed by M.Calestino

Words and Music by M.Calestino
Arranged by M.Calestino


Gtr I (D G C F A D) - 'acoustic 1'
Gtr II (D G C F A D) - 'acoustic 2'
Gtr III (D G C F A D) - 'flute'
Gtr IV (D G C F A D) - 'clarinet'

  Q=82
 4/4
  Gtr II
   Q   Q   Q  Q    S  S   S   S   S   S  S S  Q    Q
|--0---0---0--0--|-------------------------------------|
|----------------|-------------------------------------|
|----------1--2--|-4--6---4----------------------------|
|--2---4---------|------------7---6---4------------6---|
|----------------|-----------------------7-6-----------|
|----------------|----------------------------7---(7)--|
|
| Gtr I
|  Q   Q   Q  Q    S  S   S   S   S   S  S S  Q    Q
|-^0-------------|-4h=5---4------------------------0---|
|-^0---0------0--|-0-(0)-(0)--7---5p==4------------0---|
|-^1--(1)--1-----|-----------------------6p4-(4)-------|
|-^2---2------2--|----------------------------6---(6)--|
|-^2--(2)--2-----|-------------------------------------|
|-^0--(0)--------|-0-(0)-(0)-(0)-(0)-(0)---------------|


  Q.    E  Q   Q      S S E S S E  S S E  S S E
|-5-----2------7---|-11p7---7p0----------11p7---|
|----------4---0---|------0-----0------0------0-|
|------------------|--------------11p8----------|
|-4------------9---|----------------------------|
|------------------|----------------------------|
|------------------|----------------------------|
|
| Q.    E  Q   Q      Q     Q      Q      S S E
|------------------|----------------------------|
|--------------0---|--4-------------------------|
|-2----(2)---------|--4-----4-------------------|
|-4-----4----------|--------4------4------------|
|-6----(6)-6--(6)--|--6------------6------------|
|------------------|----------------------7-4-0-|


  Gtr II
  Q   Q    Q   Q      Q     Q     Q  Q
|-9-------11-------|-12---(12)---12-----|
|------------------|--------9--------5--|
|-----9-------11---|--------------------|
|-7--------9-------|-11---(11)---11--6--|
|------------------|--------------------|
|------------------|--------------------|
|
| Gtr I
| Q   Q    Q   Q      E E   E  E  Q  q
|------------------|--------------4-----|
|------------------|-----------5--------|
|-2--(2)---4--(4)--|--------6-----------|
|-2---2----4---4---|----6------------2--|
|-0--(0)---2--(2)--|--4--------------4--|
|------------------|--------------------|


  E  E   S  S  E E  E   Q     Q  Q   Q   Q
|-5p=4--/9-------9--8---7---|----7--(7)------|
|----------10---------------|-7------9---7---|
|-------------11------------|------------8---|
|-4--------------6-(6)-(6)--|-7--9--(9)--7---|
|---------------------------|----------------|
|---------------------------|----------------|
|
| E  E   S  S  E E  E   Q     Q  Q   Q   Q
|--------2------------------|------------2---|
|-----------2----2--1---0---|----4--(4)------|
|-2--1---------2------------|-2--4--(4)--2---|
|----------------2-(2)-(2)--|-4--4--(4)--1---|
|---------------------------|--------2-------|
|-2-(2)---------------------|----------------|


  Gtr II
  H        H           H.                 Q
|-0-------(0)-------|--0------------------0--|
|----------0--------|-(0)--------------------|
|----------8--------|-(8)--------------------|
|-6--------7--------|--6------------------2--|
|-------------------|------------------------|
|-------------------|------------------------|
|
| Gtr I
| E E E E  E  E E E    E   E   E   E  Q   Q
|-------------0-----|------------------------|
|----------0----0---|------------------------|
|-------1---------1-|----------1h==2--1------|
|-----2-------------|--------------------^2--|
|---2---------------|------2--(2)-(2)----^2--|
|-0-----------------|--0--(0)-(0)-(0)----^0--|


  Q=82
 4/4
      Gtr III
   Q   Q    Q   Q     Q              Q           Q    Q
|-----16---12--16--|-12-------------16----------12---16---|
|------------------|--------------------------------------|
|------------------|--------------------------------------|
|------------------|--------------------------------------|
|------------------|--------------------------------------|
|------------------|--------------------------------------|
|
| Gtr II
|  Q   Q    Q   Q     S  S   S   S   S   S  S S  Q    Q
|--0---0----0---0--|--------------------------------------|
|------------------|--------------------------------------|
|-----------1---2--|--4h=6---4----------------------------|
|--2---4-----------|-------------7---6p==4------------6---|
|------------------|------------------------7-6-----------|
|------------------|-----------------------------7---(7)--|
|
| Gtr I
|  Q   Q    Q   Q     S  S   S   S   S   S  S S  Q    Q
|-^0---------------|--4h=5---4------------------------0---|
|-^0---0--------0--|--0-(0)-(0)--7---5p==4------------0---|
|-^1--(1)---1------|------------------------6p4-(4)-------|
|-^2---2--------2--|-----------------------------6---(6)--|
|-^2--(2)---2------|--------------------------------------|
|-^0--(0)----------|--0-(0)-(0)-(0)-(0)-(0)---------------|


   W                   E    E  E    E  E    E  E    E
|-17----------------|-19---23-19----------------------|
|-------------------|--------------22-21---19---------|
|-------------------|-------------------------21---20-|
|-------------------|---------------------------------|
|-------------------|---------------------------------|
|-------------------|---------------------------------|
|
|  Q.    E  Q   Q      S S  E  S S  E  S S  E  S S  E
|--5-----2------7---|-11p7-----7p0------------11p7----|
|-----------4---0---|-------0-------0-------0-------0-|
|-------------------|-----------------11p8------------|
|--4------------9---|---------------------------------|
|-------------------|---------------------------------|
|-------------------|---------------------------------|
|
|  Q.    E  Q   Q      Q       Q       Q       S S  E
|-------------------|---------------------------------|
|---------------0---|--4------------------------------|
|--2----(2)---------|--4-------4----------------------|
|--4-----4----------|----------4-------4--------------|
|--6----(6)-6--(6)--|--6---------------6--------------|
|-------------------|--------------------------7-4--0-|


  Gtr III
   E  E  E   E  E  E  E   E    E  E   E   E  Q   Q
|-------12--17-------14--19-|--------16--21-24--12--|
|----14-----------16--------|----17-----------------|
|-14-----------16-----------|-18--------------------|
|---------------------------|-----------------------|
|---------------------------|-----------------------|
|---------------------------|-----------------------|
|
| Gtr II
|  Q     Q      Q     Q        Q      Q      Q   Q
|--9-----------11-----------|-12----(12)----12---4--|
|---------------------------|---------9-------------|
|--------9-----------11-----|--------------------4--|
|--7------------9-----------|-11----(11)----11------|
|---------------------------|-----------------------|
|---------------------------|-----------------------|
|
| Gtr I
|  Q     Q      Q     Q        E  E   E   E  Q   Q
|---------------------------|----------------4------|
|---------------------------|-------------5------5--|
|--2----(2)-----4----(4)----|---------6-------------|
|--2-----2------4-----4-----|-----6--------------6--|
|--0----(0)-----2----(2)----|--4--------------------|
|---------------------------|-----------------------|


   E  Q.              H        Q   H        Q
|-11--9--------------17-----|-12-----------11----|
|---------------------------|-----12-------------|
|---------------------------|--------------------|
|---------------------------|--------------------|
|---------------------------|--------------------|
|---------------------------|--------------------|
|
|  E  E   S   S   E   Q  Q     Q   Q   Q    E E
|--2--0---5-----------9--7--|------7--(7)--------|
|-------------5-------------|--7-------9---------|
|--2-(2)----------6------6--|---------------8----|
|---------------------7-----|--7---9--(9)-----7--|
|---------------------------|--------------------|
|---------------------------|--------------------|
|
|  E  E   S   S   E   Q  Q     Q   Q   Q    Q
|---------------------------|--0------------2----|
|--4p=2---2-----------------|--2---0--(0)---0----|
|--2-(2)------2-------2-----|------2--(2)---2----|
|-----------------2------2--|--2-------1----1----|
|--0-(0)-(0)-(0)-(0)--------|------2--(2)--------|
|---------------------------|--------------------|


  Gtr III
   H.                  E  E   E  E  H
|-12----------------|-17-16--17-19-19-----|
|-------------------|---------------------|
|-------------------|---------------------|
|-------------------|---------------------|
|-------------------|---------------------|
|-------------------|---------------------|
|
|  E  E E E E E E E    E  E   E  E  Q  Q
|-------------0-----|--5--4h==5-/7-----0--|
|-----------0---0---|---------------9-----|
|---------1-------1-|--6--4h==6-/8--------|
|-------2-----------|---------------9--6--|
|-----2-------------|---------------------|
|--0----------------|---------------------|
|
|  E  E E E E E E E    E  E   E  E  Q  Q
|-------------0-----|---------2-----------|
|-----------0---0---|--2--0------4--5-----|
|---------1-------1-|---------------------|
|-------2-----------|--2-(2)--2--4--6--2--|
|-----2-------------|------------------2--|
|--0----------------|------------------0--|


  Q=82
 4/4
  Gtr II
   Q   Q   Q  Q    S  S   S   S   S   S  S S  Q    Q
|--0---0---0--0--|-------------------------------------|
|----------------|-------------------------------------|
|----------1--2--|-4--6---4----------------------------|
|--2---4---------|------------7---6---4------------6---|
|----------------|-----------------------7-6-----------|
|----------------|----------------------------7---(7)--|
|
| Gtr I
|  Q   Q   Q  Q    S  S   S   S   S   S  S S  Q    Q
|-^0-------------|-4h=5---4------------------------0---|
|-^0---0------0--|-0-(0)-(0)--7---5p==4------------0---|
|-^1--(1)--1-----|-----------------------6p4-(4)-------|
|-^2---2------2--|----------------------------6---(6)--|
|-^2--(2)--2-----|-------------------------------------|
|-^0--(0)--------|-0-(0)-(0)-(0)-(0)-(0)---------------|


  Q.    E  Q   Q      S S E S S E  S S E Q
|-5-----2------7---|-11p7---7p0--------------|
|----------4---0---|------0-----0------0-4---|
|------------------|--------------11p8---4---|
|-4------------9---|-------------------------|
|------------------|-------------------------|
|------------------|-------------------------|
|
| Q.    E  Q   Q      Q     Q      Q     Q
|------------------|-------------------------|
|--------------0---|--4----------------------|
|-2----(2)---------|--4-----4------------4---|
|-4-----4----------|--------4------4-----6---|
|-6----(6)-6--(6)--|--6------------6---------|
|------------------|---------------------4---|


  Gtr II
  H.            Q       Q    Q    Q   Q
|-------------------|-<12>-------<7>--4--|
|-5-----------<12>--|-------<7>----------|
|-6-----------------|-----------------4--|
|-------------------|--------------------|
|-------------------|--------------------|
|-------------------|--------------------|
|
| Q    Q   Q    Q       Q    Q    Q   Q
|----------0--------|-<12>-------<7>-----|
|------0------<12>--|-------<7>-------5--|
|-6---(6)-----------|--------------------|
|-7---(7)-----------|-----------------6--|
|-------------------|--------------------|
|-5---(5)-----------|--------------------|


  E  E   S   S   E  Q      Q     Q  Q   Q   E E
|-2--0---5----------9------7---|----7--(7)-------|
|------------5-----------------|-7------9--------|
|-2-(2)----------6---------6---|------------8----|
|-------------------7----------|-7--9--(9)----7--|
|------------------------------|-----------------|
|------------------------------|-----------------|
|
| E  E   S   S   E  E  E   Q     Q  Q   Q   Q
|-------------------2--1---0---|-0----------2----|
|-4p=2---2---------------------|-2--0--(0)--0----|
|-2-(2)------2------2-(2)-(2)--|----2--(2)--2----|
|----------------2-------------|-2------1---1----|
|-0-(0)-(0)-(0)-(0)------------|----2--(2)-------|
|------------------------------|-----------------|


  E E E E E E E E   Q  Q  Q   Q
|-----------0-----|-9--7------0--|
|---------0---0---|-------9------|
|-------1-------1-|-9--8--9------|
|-----2-----------|-----------6--|
|---2-------------|--------------|
|-0---------------|--------------|
|
| E E E E E E E E   Q  Q  Q   Q
|-----------0-----|-5--2--4------|
|---------0---0---|--------------|
|-------1-------1-|-6--2--4------|
|-----2-----------|----------^2--|
|---2-------------|----------^2--|
|-0---------------|----------^0--|


  Q=82
 4/4
      Gtr III
   Q   Q    Q   Q     Q              Q             Q    Q
|-----16---12--16--|-12-------------16------------12---16---|
|------------------|----------------------------------------|
|------------------|----------------------------------------|
|------------------|----------------------------------------|
|------------------|----------------------------------------|
|------------------|----------------------------------------|
|
| Gtr IV
|------------------|----------------------------------------|
|------------------|----------------------------------------|
|------------------|----------------------------------------|
|------------------|----------------------------------------|
|------------------|----------------------------------------|
|------------------|----------------------------------------|
|
| Gtr II
|  Q   Q    Q   Q     S  S   S   S   S   S   S  S  Q    Q
|-^0---0----0---0--|--4--5---4--------------------------0---|
|-^0---0--------0--|--0-(0)-(0)--7---5---4--------------0---|
|-^1---2----1---2--|--4--6---4---------------6--4-(4)-------|
|-^2---4--------2--|-------------7---6---4---------6----6---|
|-^2--(2)---2------|-------------------------7--6-----------|
|-^0--(0)----------|--0-(0)-(0)-(0)-(0)-(0)-(0)----7---(7)--|


   W                         E  E  E  E  E  E  E    E
|-17----------------------|-19-23-19------------------|
|-------------------------|----------22-21-19---------|
|-------------------------|-------------------21---20-|
|-------------------------|---------------------------|
|-------------------------|---------------------------|
|-------------------------|---------------------------|
|
|  E  E E  E  E  E  E   E    E  E  E  E  E  E  E    E
|-------------------------|---------------------------|
|-------------------------|---------------------------|
|-------------8-11--8--11-|--8-11--8------------------|
|-------7--9--------------|----------11--9--7---------|
|--6--9-------------------|-------------------11----9-|
|-------------------------|---------------------------|
|
|  Q.      E  Q     Q        Q     Q     Q     S S  E
|--5-------2--------7-----|-------------------11-7----|
|-------------4-----0-----|--4----------------------0-|
|--2------(2)-------------|--4-----4------------------|
|--4-------4--------9-----|--------4-----4------------|
|--6------(6)-6----(6)----|--6-----------6------------|
|-------------------------|--------------------7-4--0-|


|-|
|-|
|-|
|-|
|-|
|-|



Duration Legend
---------------
W - whole; H - half; Q - quarter; E - 8th; S - 16th; T - 32nd; X - 64th; a - acciaccatura
+ - note tied to previous; . - note dotted; .. - note double dotted
Uncapitalized letters represent notes that are staccato (1/2 duration)
Irregular groupings are notated above the duration line
Duration letters will always appear directly above the note/fret number it represents the
duration for.  Duration letters with no fret number below them represent rests.  Multi-
bar rests are notated in the form Wxn, where n is the number of bars to rest for.  Low
melody durations appear below the staff

Tablature Legend
----------------
 h   - hammer-on
 p   - pull-off
 b   - bend
 pb  - pre-bend
 r   - bend release (if no number after the r, then release immediately)
 /\  - slide into or out of (from/to "nowhere")
 s   - legato slide
 S   - shift slide
<n> - natural harmonic
[n]  - artificial harmonic
n(n) - tapped harmonic
 ~   - vibrato
 tr  - trill
 T   - tap
 TP  - trem. picking
 PM  - palm muting
\n/  - tremolo bar dip; n = amount to dip
 \n  - tremolo bar down
 n/  - tremolo bar up
/n\  - tremolo bar inverted dip
 =   - hold bend; also acts as connecting device for hammers/pulls
 <> - volume swell (louder/softer)
 x   - on rhythm slash represents muted slash
 o   - on rhythm slash represents single note slash

Misc Legend
-----------
 |  - bar
||  - double bar
||o - repeat start
o|| - repeat end
*|  - double bar (ending)
 :  - bar (freetime)
 $  - Segno
 &  - Coda
Tempo markers - <E/E./Q/Q./H/H.> = BPM(8/16=s8/s16), where s8 = swing 8ths, s16 = swing 16ths


** Generated using Power Tab Editor by Brad Larsen: The Official Power Tab Web Site