#----------------------------------PLEASE NOTE---------------------------------#
#This file is the author's own work and represents their interpretation of the #
#song. You may only use this file for private study, scholarship, or research. #
#------------------------------------------------------------------------------#

KINGDOM BY THE SEA
As recorded by Blood Vacuum
(From the 2005 Album TEMPORAL STORM)

Transcribed by M.Calestino

Words by MC Music by M.Calestino
Arranged by MC


Gtr I (D G C F A D) - 'trumpets'
Gtr II (D G C F A D) - 'strings'
Gtr III (D G C F A D) - 'flute'
Gtr IV (D G C F A D) - 'rhythm guitar'
Gtr V (D G C F A D) - 'harpsichord'

 4/4
  Wx2
|--------|
|--------|
|--------|
|--------|
|--------|
|--------|


  Q=104
  Gtr III
   S  S  S  S  Q.   E  E  E    S  S  S  S  Q  Q   Q
|-19-16---------------------|-16-17-16-17-16---------|
|-------17---------------17-|--------------------14--|
|----------16---------16----|--------------------14--|
|-------------18------------|------------------------|
|---------------------------|------------------------|
|---------------------------|------------------------|


   S   S    S    S  E E Q  Q    Q  Q   Q   Q
|-12---7----4-----------------|---------------|
|-12-(12)-(12)-(12)--------9--|-------10--12--|
|----------------9----9-8-----|-2-------------|
|-------------------9---------|---------------|
|-----------------------------|---------------|
|-----------------------------|---------------|


  Gtr III
   S  S  S  S  Q.       E    E  E    S  S  S  S  Q         Q      Q
|-19-16---------------------------|-16-17-16-17-16--------------------|
|-------17---------------------17-|------------------------------14---|
|----------16---------------16----|------------------------------14---|
|-------------18------------------|-----------------------------------|
|---------------------------------|-----------------------------------|
|---------------------------------|-----------------------------------|
|
| Gtr I
|  H                Q        Q       Q           E    S  S Q      E E
|---------------------------------|-----------------------------------|
|-12------------------------------|--9---------------12-10-9----------|
|--9-------------------------4----|--9---------------13-11-9------9---|
|--9-------------------------4----|--6---------------------------11---|
|----------------------------2----|-----------------------------------|
|---------------------------------|-----------------------------------|
|
| Gtr IV
|  S  S  S  S  S  Q   E   S  E       S  S  S  S  S Q         E S  E
|---------------------------------|-----------------------------------|
|---------------------------------|-----------------------------------|
|---------------------------------|-----------------------------------|
|--2-----------2------6------6----|--6-----------6-----------6----6---|
|--2-----------2------2------2----|--7-----------7-----------7----7---|
|-----4--0--4--0------0------4----|-----7--0--7--0-----------0----7---|


   S  S S S E   E Q     Q     H               Q      E  E
|-12--7---------------------|-------------------------------|
|-------9---------------9---|----------------10-----12------|
|---------9-----9-8---------|-8-----------------------------|
|-----------9---------------|-------------------------------|
|---------------------------|-------------------------------|
|---------------------------|-------------------------------|
|
|  Q.           E Q     E E   Q.           E  Q      Q
|---------------------------|-------------------------------|
|-----------------------5---|-----------------4------7------|
|--4------------6-4-----4---|-2---------------4-----(4)-----|
|--6------------6-6---------|-1-----------------------------|
|---------------------------|-------------------------------|
|---------------------------|-------------------------------|
|
|  S  S S S S Q     E S E     S  S S S S Q      E S  E
|---------------------------|-------------------------------|
|---------------------------|-------------------------------|
|---------------------------|-4--------4-------------4------|
|--2--------2-------6---6---|-4--4---4-4-------------4------|
|--2--------2-------2---2---|----6-6-6----------6----6------|
|-----4-0-4-0-------0---4---|------7------------7-----------|


  Gtr III
   S  S  S  S  Q.       E    E  E    S  S  S  S  Q         Q      Q
|-19p16---------------------------|-16h17-16h17-16--------------------|
|-------17---------------------17-|------------------------------14---|
|----------16---------------16----|------------------------------14---|
|-------------18------------------|-----------------------------------|
|---------------------------------|-----------------------------------|
|---------------------------------|-----------------------------------|
|
| Gtr I
|  H                Q        Q       Q           E    S  S Q      E E
|-12------------------------------|-----------------------------------|
|---------------------------------|--9---------------12p10-9----------|
|--9-------------------------4----|--9---------------13-11-9------9---|
|--9-------------------------4----|------------------------------11---|
|---------------------------------|-----------------------------------|
|---------------------------------|-----------------------------------|
|
| Gtr IV
|  S  S  S  S  S  Q   E   S  E       S  S  S  S  S Q         E S  E
|---------------------------------|-----------------------------------|
|---------------------------------|-----------------------------------|
|---------------------------------|-----------------------------------|
|--2-----------2------6------6----|--6-----------6-----------6----6---|
|--2-----------2------2------2----|--7-----------7-----------7----7---|
|-----4--0--4--0------0------4----|-----7--0--7--0-----------0----7---|


   Q.           E  Q      Q     H               Q      E E
|-19-------------------------|-17----------------------------|
|------------------------17--|------------------------12-----|
|-----------------16---------|-----------------13------------|
|----------------------------|-------------------------------|
|----------------------------|-------------------------------|
|----------------------------|-------------------------------|
|
|  H               Q      Q     Q.           E  Q      Q
|-----------------11------7--|------------------7------4-----|
|--7--------------12------9--|--5---------------9------5-----|
|--8-------------------------|--6----------------------------|
|----------------------------|-------------------------------|
|----------------------------|-------------------------------|
|----------------------------|-------------------------------|
|
|  S  S S S S Q      E S  E     S  S S S S Q      E S  E
|----------------------------|-------------------------------|
|----------------------------|-------------------------------|
|--4--------4-------------4--|--2--------2-------------2-----|
|--4--4---4-4-------------4--|--2--2---2-2-------------2-----|
|-----6-6-6----------6----6--|-----4-4-4----------4----4-----|
|-------7------------7-------|-------5------------5----------|


  Gtrs II, IV
  E   E   E   E  Q.       E   E    E    E    E  Q       Q
|---------------12----------|---------------11--9------11--|
|-------------9--9----------|----------11---12-11------12--|
|-----4---9---9-------------|-6---11---11------------------|
|-6---6---9-----------------|-8---11-----------------------|
|-7-------------------------|------------------------------|
|---------------------------|------------------------------|
|
| Gtr I
| S S S S S q       E S E     S S  S S  S Q        E S  E
|---------------------------|------------------------------|
|---------------------------|-7-7--7-7--7------------------|
|-9-9-9-9-9---------9---9---|-6-6--6-6--6------------------|
|-9-9-9-9-9---------9---9---|-4-4--4-4--4---------11---11--|
|---------------------------|----------------------9----9--|
|---------------------------|------------------------------|
|
| Gtr IV
| S S S S S Q       E S E     S S  S S  S Q        E S  E
|---------------------------|------------------------------|
|---------------------------|------------------------------|
|---------------------------|------------------------------|
|-6-----6-6---------6---6---|-4---------4----------4----4--|
|-7-----7-7---------7---7---|-4---------4----------4----4--|
|---7-0---0---------0---7---|---6--2-6-------------2----2--|


   Q.          E  Q.     E  W
|-14-------------16--------14-----------|
|-12-----------------------12-----------|
|----------------16---------------------|
|---------------------------------------|
|---------------------------------------|
|---------------------------------------|
|
|  S  S S S Q.       E Q    Q  Q  Q  Q
|---------------------------------2--7--|
|------------------------------4--4--7--|
|--4--4-4-4-4---------------4--4--------|
|--4--4-4-4-4----------4----4-----------|
|--2--2-2-2-2----------6----------------|
|---------------------------------------|
|
|  S  S S S S
|---------------------------------------|
|---------------------------------------|
|--4--------4---------------------------|
|--4--4---4-4---------------------------|
|-----6-6-6-6---------------------------|
|-------7-------------------------------|


  Q=122
  Gtr I
  H
|-4--------------------|----------------------------|
|-4--------------------|----------------------------|
|-4--------------------|----------------------------|
|----------------------|----------------------------|
|----------------------|----------------------------|
|----------------------|----------------------------|
|
| Gtrs II, V
|                                            |-3--|
| S S E    E E E E E E   S S E    E E E S S  E  E E
|----------------------|----------------------------|
|----------------------|----------------------------|
|----------------------|----------------------------|
|------------------6---|----------------------------|
|----------6---7-----7-|----------6---7------9--7-6-|
|-4-4-4------4---4-----|-4-4-4------4---0-7-(7)-----|
|
| Gtr IV
| S S S H.               S S S H.
|----------------------|----------------------------|
|----------------------|----------------------------|
|----------------------|----------------------------|
|----------------------|----------------------------|
|-6-6-6----------------|-6-6-6----------------------|
|-4-4-4----------------|-4-4-4----------------------|


                         E E E  E E  E  E  E
|----------------------|-----9-11------11-12--|
|----------------------|----------------------|
|----------------------|---4-6--8----6--8--9--|
|----------------------|-6-6------8--8--------|
|----------------------|-7--------9-----------|
|----------------------|----------------------|
|
| S S E    E E E E E E   E E E  E E  E  E  E
|----------------------|----------------------|
|----------------------|----------------------|
|----------------------|-----6--8-------8--9--|
|------------------6---|---6---------8--------|
|----------6---7-----7-|-7--------9-----------|
|-4-4-4------4---4-----|----------------------|
|
| S S S H.               E E E  E E  E  E  E
|----------------------|----------------------|
|----------------------|----------------------|
|----------------------|----------------------|
|----------------------|-6-9-8--9-8-11--9-11--|
|-6-6-6----------------|----------------------|
|-4-4-4----------------|----------------------|


  Gtrs II, V
                                           |-3--|
   S  S E E E E E  E E   S  S E E E E S S  E  E E
|----------------------|--------------------------|
|----------------------|--------------------------|
|----------------------|--------------------------|
|------------------6---|--------------------------|
|---------6---7------7-|--------6---7------9--7-6-|
|--4--4-4---4---4------|-4--4-4---4---0-7-(7)-----|
|
| Gtr I
|                                          |-3--|
|  Q.       E Q    E E   Q.       E Q      E  E E
|-11-------------------|------------2------4--2-0-|
|----------------------|------------0------0--0-0-|
|--8----------9---11-9-|-1------------------------|
|--6----------6----9-9-|-1------------------------|
|----------------------|--------------------------|
|----------------------|--------------------------|
|
| Gtr IV
|  H          Q    Q     H          Q      Q
|----------------------|--------------------------|
|----------------------|--------------------------|
|----------------------|--------------------------|
|----------------------|--------------------------|
|--6----------7----4---|-6----------9------7------|
|--4----------5----2---|-4----------7------5------|


  S  S E E E  E E E E   E E E  E E E  E  E
|---------------------|---------------------|
|---------------------|---------------------|
|---------------------|-----6--8------8--9--|
|-----------------6---|---6--------8--------|
|--------6----7-----7-|-7--------9----------|
|-4--4-4---4----4-----|---------------------|
|
| Q.       Q.     E     E E E  E E E  E  E
|---------------------|-----9-11-----11-12--|
|---------------------|---------------------|
|-8--------9----------|---4-6--8---6--8--9--|
|-6--------6----------|-6-6------8-8--------|
|---------------------|-7--------9----------|
|---------------------|---------------------|
|
| H           H         E E E  E E E  E  E
|---------------------|---------------------|
|---------------------|---------------------|
|---------------------|---------------------|
|-------------6-------|---------------1--2--|
|-6-----------7-------|-----4--6---1--------|
|-4-----------0-------|-0-4------2----------|


  Gtrs II, V
   E   E E    E  E   E E    E    E   E E    E  E   E E    E
|---------------------------7-|--------------------------11-|
|--------9---11--------9------|--------9---11--------9------|
|------8-------------8--------|------8-------------8--------|
|--9-------------9------------|--9-------------9------------|
|-----------------------------|-----------------------------|
|-----------------------------|-----------------------------|
|
| Gtrs II, V
|  E   E E    E  E   E E    E    E   E E    E  E   E E    E
|-----------------------------|-----------------------------|
|-----------------------------|--------------------------12-|
|--------9---11--------9---13-|--------9---11--------9------|
|------9-------------9--------|------9-------------9--------|
|-11------------11------------|-11------------11------------|
|-----------------------------|-----------------------------|
|
| Gtr IV
|  S S E S S  E  S S E S S  E    S S E S S  E  S S E S S  E
|-----------------------------|-----------------------------|
|-----------------------------|-----------------------------|
|--4-1-1-4-1--1--4-3-3-4-3--3-|--6-4-4-6-4--4--8-6-6-9-8--6-|
|--1-1-1-1-1--1--2-2-2-2-2--2-|--4-4-4-4-4--4--6-6-6-6-6--6-|
|-----------------------------|-----------------------------|
|-----------------------------|-----------------------------|


   E   E  E    E  E   E  E    E    E     E  E     E  E     E  E     E
|-----------------------------7-|----------------------------------11----|
|---------9---11---------9------|-----------9----11-----------9----------|
|------8--------------8---------|--------8-----------------8-------------|
|--9--------------9-------------|--9-----------------9-------------------|
|-------------------------------|----------------------------------------|
|-------------------------------|----------------------------------------|
|
|  E   E  E    E  E   E  E    E    E     E  E     E  E     E  E     E
|-------------------------------|----------------------------------------|
|-------------------------------|----------------------------------12----|
|---------9---11---------9---13-|-----------9----11-----------9----------|
|------9--------------9---------|--------9-----------------9-------------|
|-11-------------11-------------|-11----------------11-------------------|
|-------------------------------|----------------------------------------|
|
|  S S E  S S  E  S S E  S S  E    S  S  E  S  S  E  S  S  E  S  S  E
|-------------------------------|----------------------------------------|
|-------------------------------|----------------------------------------|
|--9-8-8-11-8--8--9-8-8-11-8--8-|-11--9--9-11--9--9-13-11-11-15-13-11----|
|--8-8-8--8-8--8--9-9-9--9-9--9-|-11-11-11-11-11-11-13-13-13-13-13-13----|
|-------------------------------|----------------------------------------|
|-------------------------------|----------------------------------------|


  Gtr II                       Gtrs II, V
   Q      Q                     Q      Q      Q       Q
|-16-----16------------------|-12-----14-----16------17-----|
|-16-----16------------------|-14-----16-----17------19-----|
|-16-----16------------------|------------------------------|
|----------------------------|------------------------------|
|----------------------------|------------------------------|
|--4------4------------------|------------------------------|
|  Q      Q
|
| Gtr IV
|  E S S  E S S S S S S  E E    E  E   E  E   E   E   E  E
|----------------------------|------------------------------|
|--9------9------------------|------------------------------|
|--8------8-9-9-9-9-9-9----8-|--9-(9)--8-(8)----------------|
|--9-9-9--9-6-6-6-6-6-6--9---|----11------9--11-(11)--9-(9)-|
|----------------------------|-------------------12-----11--|
|----------------------------|------------------------------|
|
| Gtr IV
|  E S S  E S S S S S S  E E    E  E   E  E   E   E   E  E
|----------------------------|------------------------------|
|----------------------------|------------------------------|
|----------------------------|--6-(6)-----------------------|
|--------------------------9-|-----7---9-(9)--7--(7)--6-(6)-|
|--6-6-6--6-------------11---|-----------11-------9------7--|
|--4-4-4--4-4-4-4-4-4-4------|------------------------------|
   E


  Gtr II                     Gtrs II, V
  Q      Q                   E E E E E  E  S  S  E
|-7-----11-----------------|-----7---9----11-12-11-|
|-9-----12-----------------|---9---9---10----------|
|-8-----13-----------------|-9---4---6-----8--9--8-|
|--------------------------|---6---6----7----------|
|--------------------------|-7---------------------|
|-4------4-----------------|-----------------------|
| Q      Q                   E E E E E  E  S  S  E
|
|--------------------------|-----------------------|
|--------------------------|-----------------------|
|-8-8-8--8---------------8-|-----4---6-----8--9--8-|
|-6-6-6--6-6-6-6-6-6-6-6---|---6---6----7----------|
|----------7-7-7-7-7-7-----|-7-------------6--7--6-|
|--------------------------|-----------------------|
| E S S  E S S S S S S E E   E E E E E  E  S  S  E
|
| E S S  E S S S S S S E E   E E E E E  E  S  S  E
|--------------------------|-----------------------|
|--------------------------|-----------------------|
|--------------------------|-----------------------|
|------------------------9-|-----------------------|
|-6-6-6--6-------------7---|-----6---7-----9--7--6-|
|-4-4-4--4-4-4-4-4-4-4-----|-4-7---7----9----------|


  Gtr II                       Gtrs II, V
   Q      Q                     Q      Q      Q       Q
|-16-----16------------------|-12-----14-----16------17-----|
|-16-----16------------------|-14-----16-----17------19-----|
|-16-----16------------------|------------------------------|
|----------------------------|------------------------------|
|----------------------------|------------------------------|
|--4------4------------------|------------------------------|
|  Q      Q
|
| Gtr IV
|  E S S  E S S S S S S  E E    E  E   E  E   E   E   E  E
|----------------------------|------------------------------|
|--9------9------------------|------------------------------|
|--8------8-9-9-9-9-9-9----8-|--9-(9)--8-(8)----------------|
|--9-9-9--9-6-6-6-6-6-6--9---|----11------9--11-(11)--9-(9)-|
|----------------------------|-------------------12-----11--|
|----------------------------|------------------------------|
|
| Gtr IV
|  E S S  E S S S S S S  E E    E  E   E  E   E   E   E  E
|----------------------------|------------------------------|
|----------------------------|------------------------------|
|----------------------------|--6-(6)-----------------------|
|--------------------------9-|-----7---9-(9)--7--(7)--6-(6)-|
|--6-6-6--6-------------11---|-----------11-------9------7--|
|--4-4-4--4-4-4-4-4-4-4------|------------------------------|
   E


                             Gtrs II, V
  Q      Q                   E E E E E  E  S  S  E
|-7-----11-----------------|-----7---9----11-12-11-|
|-9-----12-----------------|---9---9---10----------|
|-8-----13-----------------|-9---4---6-----8--9--8-|
|--------------------------|---6---6----7----------|
|--------------------------|-7---------------------|
|-4------4-----------------|-----------------------|
| Q      Q                   E E E E E  E  S  S  E
|
|--------------------------|-----------------------|
|--------------------------|-----------------------|
|-8-8-8--8---------------8-|-----4---6-----8--9--8-|
|-6-6-6--6-6-6-6-6-6-6-6---|---6---6----7----------|
|----------7-7-7-7-7-7-----|-7-------------6--7--6-|
|--------------------------|-----------------------|
| E S S  E S S S S S S E E   E E E E E  E  S  S  E
|
| E S S  E S S S S S S E E   E E E E E  E  S  S  E
|--------------------------|-----------------------|
|--------------------------|-----------------------|
|--------------------------|-----------------------|
|------------------------9-|-----------------------|
|-6-6-6--6-------------7---|-----6---7-----9--7--6-|
|-4-4-4--4-4-4-4-4-4-4-----|-4-7---7----9----------|


                              Gtrs II, V
   Q      Q                    E  E   E  E   E  E   E  E
|-14-----14-----------------|-14-15--17-19--15-17--19-21--|
|-14-----14-----------------|-15-17--19-20--17-19--20-22--|
|-14-----14-----------------|-----------------------------|
|---------------------------|-----------------------------|
|---------------------------|-----------------------------|
|--2------2-----------------|-----------------------------|
|
| Gtr IV
|  E S S  E S S S S S S E E    E  E   E  E   E  E   E  E
|---------------------------|-----------------------------|
|--7------7-----------------|-----------------------------|
|--6------6-7-7-7-7-7-7---6-|--7-(7)--6-(6)---------------|
|--7-7-7--7-4-4-4-4-4-4-7---|-----9------7---9-(9)--7-(7)-|
|---------------------------|------------------10------9--|
|---------------------------|-----------------------------|
|
| Gtr IV
|  E S S  E S S S S S S E E    E  E   E  E   E  E   E  E
|---------------------------|-----------------------------|
|---------------------------|-----------------------------|
|---------------------------|--4-(4)----------------------|
|-------------------------7-|-----5---7-(7)--5-(5)--4-(4)-|
|--4-4-4--4-------------9---|------------9------7------5--|
|--2-2-2--2-2-2-2-2-2-2-----|-----------------------------|
   E


                              Gtrs II, V
   Q      Q                    E  E E  E  E  E  S  S E
|-17-----17-----------------|-------9----10----12-10-9-|
|-14-----19-----------------|----10---10----12---------|
|-14-----18-----------------|-11----2-----4-----6--7-6-|
|---------------------------|-----4----4-----5---------|
|---------------------------|--5-----------------------|
|--2------2-----------------|--------------------------|
|
|---------------------------|--------------------------|
|---------------------------|--------------------------|
|--6-6-6--6---------------6-|-------2-----4-----6--7-6-|
|--4-4-4--4-4-4-4-4-4-4-4---|-----4----4-----5---------|
|-----------5-5-5-5-5-5-----|--5----------------4--5-4-|
|---------------------------|--------------------------|
|  E S S  E S S S S S S E E    E  E E  E  E  E  S  S E
|
|  E S S  E S S S S S S E E    E  E E  E  E  E  S  S E
|---------------------------|--------------------------|
|---------------------------|--------------------------|
|---------------------------|--------------------------|
|-------------------------7-|--------------------------|
|--4-4-4--4-------------5---|-------4-----5-----7--5-4-|
|--2-2-2--2-2-2-2-2-2-2-----|--2--5----5-----7---------|


  Gtr II                      Gtrs II, V
   Q      Q                    E  E   E  E   E  E   E  E
|-14-----14-----------------|-14-15--17-19--15-17--19-21--|
|-14-----14-----------------|-15-17--19-20--17-19--20-22--|
|-14-----14-----------------|-----------------------------|
|---------------------------|-----------------------------|
|---------------------------|-----------------------------|
|--2------2-----------------|-----------------------------|
|  E      E
|
| Gtr IV
|  E S S  E S S S S S S E E    E  E   E  E   E  E   E  E
|---------------------------|-----------------------------|
|--7------7-----------------|-----------------------------|
|--6------6-7-7-7-7-7-7---6-|--7-(7)--6-(6)---------------|
|--7-7-7--7-7-4-4-4-4-4-7---|-----9------7---9-(9)--7-(7)-|
|---------------------------|------------------10------9--|
|---------------------------|-----------------------------|
|
| Gtr IV
|  E S S  E S S S S S S E E    E  E   E  E   E  E   E  E
|---------------------------|-----------------------------|
|---------------------------|-----------------------------|
|---------------------------|--4-(4)----------------------|
|-------------------------7-|-----5---7-(7)--5-(5)--4-(4)-|
|--4-4-4--4-------------9---|------------9------7------5--|
|--2-2-2--2-2-2-2-2-2-2-----|-----------------------------|
   E


                              Gtrs II, V
   Q      Q                    E  E E  E  E  E  S  S E
|-17-----17-----------------|-------9----10----12-10-9-|
|-14-----19-----------------|----10---10----12---------|
|-14-----18-----------------|-11----2-----4-----6--7-6-|
|---------------------------|-----4----4-----5---------|
|---------------------------|--5-----------------------|
|--2------2-----------------|--------------------------|
|  E      E
|
|---------------------------|--------------------------|
|---------------------------|--------------------------|
|--6-6-6--6---------------6-|-------2-----4-----6--7-6-|
|--4-4-4--4-4-4-4-4-4-4-4---|-----4----4-----5---------|
|-----------5-5-5-5-5-5-----|--5----------------4--5-4-|
|---------------------------|--------------------------|
|  E S S  E S S S S S S E E    E  E E  E  E  E  S  S E
|
|  E S S  E S S S S S S E E    E  E E  E  E  E  S  S E
|---------------------------|--------------------------|
|---------------------------|--------------------------|
|---------------------------|--------------------------|
|-------------------------7-|--------------------------|
|--4-4-4--4-------------5---|-------4-----5-----7--5-4-|
|--2-2-2--2-2-2-2-2-2-2-----|--2--5----5-----7---------|


  Gtrs II, V
  E E E E E E S S E   E E E E E E S S E
|-------------------|-------------------|
|-------------------|-------------------|
|-------------------|-------------------|
|-------------------|---------4---6-4---|
|-----6---7---9-7-6-|-0-4-7-4---6-----7-|
|-4-7---7---9-------|-------------------|
|
| Gtr IV
|                     E E E E E E S S E
|-------------------|-------------------|
|-------------------|-------------------|
|-----4---6---8-9-8-|-----1---2---4-2-1-|
|---6---6---7-------|---2---2---4-------|
|-7-----------6-7-6-|-4-----------------|
|-------------------|-------------------|
| E E E E E E S S E
|
| Gtr IV
| E E E E E E S S E   E E E E E E S S E
|-------------------|-------------------|
|-------------------|-------------------|
|-------------------|-------------------|
|-------------------|---------4---6-4---|
|-----6---7---9-7-6-|-0-4-7-4---6-----7-|
|-4-7---7---9-------|-------------------|


  E E E E E E S S E   E E E E E E S S E
|-------------------|-------------------|
|-------------------|-------------------|
|-------------------|-------------------|
|---------4---6-4---|-----4---6---7-6-4-|
|-0-4-7-4---6-----7-|---6---6---7-------|
|-------------------|-7-----------------|
|
| E E E E E E S S E
|-------------------|-------------------|
|-------------------|-------------------|
|-----1---2---4-2-1-|---------4---6-4---|
|---2---2---4-------|---4-7-4---6-----7-|
|-4-----------------|-6-----------------|
|-------------------|-------------------|
|                     E E E E E E S S E
|
| E E E E E E S S E   E E E E E E S S E
|-------------------|-------------------|
|-------------------|-------------------|
|-------------------|-------------------|
|---------4---6-4---|-----4---6---7-6-4-|
|-0-4-7-4---6-----7-|---6---6---7-------|
|-------------------|-7-----------------|


  Gtrs II, V
                      E E E E E E S S E
|-------------------|-------------------|-------------4-2-0-|
|-------------------|-------------------|-------------------|
|---------4---6-4---|-----1---2---4-2-1-|-----4---6---------|
|---4-7-4---6-----7-|---2---2---4-------|---6---6---7-------|
|-6-----------------|-4-----------------|-7-----------------|
|-------------------|-------------------|-------------------|
| E E E E E E S S E                       E E E E E E S S E
|
| Gtr IV
|-------------------|-------------------|-------------------|
|-------------------|-------------------|-------------------|
|---------4---6-4---|-----4---6---8-6---|-----4---6---8-6---|
|---4-7-4---6-----7-|---6---6---7-----9-|---6---6---7-----9-|
|-6-----------------|-7-----------------|-7-----------------|
|-------------------|-------------------|-------------------|
| E E E E E E S S E   E E E E E E S S E   E E E E E E S S E
|
| Gtr IV
| E E E E E E S S E   E E E E E E S S E   E E E E E E S S E
|-------------------|-------------------|-------------------|
|-------------------|-------------------|-------------------|
|-------------------|-----1---2---4-2-1-|-----1---2---4-2-1-|
|-----4---6---7-6-4-|---2---2---4-------|---2---2---4-------|
|---6---6---7-------|-4-----------------|-4-----------------|
|-7-----------------|-------------------|-------------------|


|----------------------------------------9----|
|-9-7------------------------------------9----|
|------8-9-------------------------------6----|
|----------11--9-7----11--9-7------------6----|
|------------------11---------11-9-7-6-7------|
|---------------------------------------------|
| S S  S S  S  S S  S  S  S S  S S S S S W
|
| S S  S S  S  S S  S  S  S S  S S S S S W
|---------------------------------------------|
|---------------------------------------------|
|-9-8-----------------------------------------|
|-----11-9--7----------7-----------------6----|
|-------------11-9--7----11-9--7-6-------4----|
|----------------------------------9-7-5------|
|
| S S  S S  S  S S  S  S  S S  S S S S S W
|---------------------------------------------|
|-2-1-----------------------------------------|
|------2-1-------------------------------6----|
|-----------4--2-1-----4--2-1------------6----|
|-------------------4----------4-2-0-----4----|
|------------------------------------4-2-4----|


  Gtr II                       Gtrs II, V
   Q      Q                     Q      Q      Q       Q
|-16-----16------------------|-12-----14-----16------17-----|
|-16-----16------------------|-14-----16-----17------19-----|
|-16-----16------------------|------------------------------|
|----------------------------|------------------------------|
|----------------------------|------------------------------|
|--4------4------------------|------------------------------|
|  Q      Q
|
| Gtr IV
|  E S S  E S S S S S S  E E    E  E   E  E   E   E   E  E
|----------------------------|------------------------------|
|--9------9------------------|------------------------------|
|--8------8-9-9-9-9-9-9----8-|--9-(9)--8-(8)----------------|
|--9-9-9--9-6-6-6-6-6-6--9---|----11------9--11-(11)--9-(9)-|
|----------------------------|-------------------12-----11--|
|----------------------------|------------------------------|
|
| Gtr IV
|  E S S  E S S S S S S  E E    E  E   E  E   E   E   E  E
|----------------------------|------------------------------|
|----------------------------|------------------------------|
|----------------------------|--6-(6)-----------------------|
|--------------------------9-|-----7---9-(9)--7--(7)--6-(6)-|
|--6-6-6--6-------------11---|-----------11-------9------7--|
|--4-4-4--4-4-4-4-4-4-4------|------------------------------|
   E


                             Gtrs II, V
  Q      E
|-7-----11-----------------|-----7---9----11-12-11-|
|-9-----12-----------------|---9---9---10----------|
|-8-----13-----------------|-9---------------------|
|--------------------------|-----------------------|
|--------------------------|-----------------------|
|-4------4-----------------|-----------------------|
| Q      Q                   E E E E E  E  S  S  E
|
|--------------------------|-----------------------|
|--------------------------|-----------------------|
|-8-8-8--8---------------8-|-----4---6-----8--9--8-|
|-6-6-6--6-6-6-6-6-6-6-6---|---6---6----7----------|
|----------7-7-7-7-7-7-----|-7-------------6--7--6-|
|--------------------------|-----------------------|
| E S S  E S S S S S S E E   E E E E E  E  S  S  E
|
| E S S  E S S S S S S E E   E E E E E  E  S  S  E
|--------------------------|-----------------------|
|--------------------------|-----------------------|
|--------------------------|-----------------------|
|------------------------9-|-----------------------|
|-6-6-6--6-------------7---|-----6---7-----9--7--6-|
|-4-4-4--4-4-4-4-4-4-4-----|-4-7---7----9----------|


  Gtr II                       Gtrs II, V
   Q      Q                     Q      Q      Q       Q
|-16-----16------------------|-12-----14-----16------17-----|
|-16-----16------------------|-14-----16-----17------19-----|
|-16-----16------------------|------------------------------|
|----------------------------|------------------------------|
|----------------------------|------------------------------|
|--4------4------------------|------------------------------|
|  Q      Q
|
| Gtr IV
|  E S S  E S S S S S S  E E    E  E   E  E   E   E   E  E
|----------------------------|------------------------------|
|--9------9------------------|------------------------------|
|--8------8-9-9-9-9-9-9----8-|--9-(9)--8-(8)----------------|
|--9-9-9--9-6-6-6-6-6-6--9---|----11------9--11-(11)--9-(9)-|
|----------------------------|-------------------12-----11--|
|----------------------------|------------------------------|
|
| Gtr IV
|  E S S  E S S S S S S  E E    E  E   E  E   E   E   E  E
|----------------------------|------------------------------|
|----------------------------|------------------------------|
|----------------------------|--6-(6)-----------------------|
|--------------------------9-|-----7---9-(9)--7--(7)--6-(6)-|
|--6-6-6--6-------------11---|-----------11-------9------7--|
|--4-4-4--4-4-4-4-4-4-4------|------------------------------|
   E


                             Gtrs II, V
  Q      Q
|-7-----11-----------------|-----7---9----11-12-11-|
|-9-----12-----------------|---9---9---10----------|
|-8-----13-----------------|-9---------------------|
|--------------------------|-----------------------|
|--------------------------|-----------------------|
|-4------4-----------------|-----------------------|
| Q      Q                   E E E E E  E  S  S  E
|
|--------------------------|-----------------------|
|--------------------------|-----------------------|
|-8-8-8--8---------------8-|-----4---6-----8--9--8-|
|-6-6-6--6-6-6-6-6-6-6-6---|---6---6----7----------|
|----------7-7-7-7-7-7-----|-7-------------6--7--6-|
|--------------------------|-----------------------|
| E S S  E S S S S S S E E   E E E E E  E  S  S  E
|
| E S S  E S S S S S S E E   E E E E E  E  S  S  E
|--------------------------|-----------------------|
|--------------------------|-----------------------|
|--------------------------|-----------------------|
|------------------------9-|-----------------------|
|-6-6-6--6-------------7---|-----6---7-----9--7--6-|
|-4-4-4--4-4-4-4-4-4-4-----|-4-7---7----9----------|


  Gtr II                      Gtrs II, V
   Q      Q                    E  E   E  E   E  E   E  E
|-14-----14-----------------|-14-15--17-19--15-17--19-21--|
|-14-----14-----------------|-15-17--19-20--17-19--20-22--|
|-14-----14-----------------|-----------------------------|
|---------------------------|-----------------------------|
|---------------------------|-----------------------------|
|--2------2-----------------|-----------------------------|
|
| Gtr IV
|  E S S  E S S S S S S E E    E  E   E  E   E  E   E  E
|---------------------------|-----------------------------|
|--7------7-----------------|-----------------------------|
|--6------6-7-7-7-7-7-7---6-|--7-(7)--6-(6)---------------|
|--7-7-7--7-7-4-4-4-4-4-7---|-----9------7---9-(9)--7-(7)-|
|---------------------------|------------------10------9--|
|---------------------------|-----------------------------|
|
| Gtr IV
|  E S S  E S S S S S S E E    E  E   E  E   E  E   E  E
|---------------------------|-----------------------------|
|---------------------------|-----------------------------|
|---------------------------|--4-(4)----------------------|
|-------------------------7-|-----5---7-(7)--5-(5)--4-(4)-|
|--4-4-4--4-------------9---|------------9------7------5--|
|--2-2-2--2-2-2-2-2-2-2-----|-----------------------------|
   E


                              Gtrs II, V
   Q      Q                    E  E E  E  E  E  S  S E
|-17-----17-----------------|-------9----10----12-10-9-|
|-14-----19-----------------|----10---10----12---------|
|-14-----18-----------------|-11-----------------------|
|---------------------------|--------------------------|
|---------------------------|--------------------------|
|--2------2-----------------|--------------------------|
|
|---------------------------|--------------------------|
|---------------------------|--------------------------|
|--6-6-6--6---------------6-|-------2-----4-----6--7-6-|
|--4-4-4--4-4-4-4-4-4-4-4---|-----4----4-----5---------|
|-----------5-5-5-5-5-5-----|--5----------------4--5-4-|
|---------------------------|--------------------------|
|  E S S  E S S S S S S E E    E  E E  E  E  E  S  S E
|
|  E S S  E S S S S S S E E    E  E E  E  E  E  S  S E
|---------------------------|--------------------------|
|---------------------------|--------------------------|
|---------------------------|--------------------------|
|-------------------------7-|--------------------------|
|--4-4-4--4-------------5---|-------4-----5-----7--5-4-|
|--2-2-2--2-2-2-2-2-2-2-----|--2--5----5-----7---------|


  Gtr II                      Gtrs II, V
   Q      Q                    E  E   E  E   E  E   E  E
|-14-----14-----------------|-14-15--17-19--15-17--19-21--|
|-14-----14-----------------|-15-17--19-20--17-19--20-22--|
|-14-----14-----------------|-----------------------------|
|---------------------------|-----------------------------|
|---------------------------|-----------------------------|
|--2------2-----------------|-----------------------------|
|
| Gtr IV
|  E S S  E S S S S S S E E    E  E   E  E   E  E   E  E
|---------------------------|-----------------------------|
|--7------7-----------------|-----------------------------|
|--6------6-7-7-7-7-7-7---6-|--7-(7)--6-(6)---------------|
|--7-7-7--7-7-4-4-4-4-4-7---|-----9------7---9-(9)--7-(7)-|
|---------------------------|------------------10------9--|
|---------------------------|-----------------------------|
|
| Gtr IV
|  E S S  E S S S S S S E E    E  E   E  E   E  E   E  E
|---------------------------|-----------------------------|
|---------------------------|-----------------------------|
|---------------------------|--4-(4)----------------------|
|-------------------------7-|-----5---7-(7)--5-(5)--4-(4)-|
|--4-4-4--4-------------9---|------------9------7------5--|
|--2-2-2--2-2-2-2-2-2-2-----|-----------------------------|
   E


                              Gtrs II, V
   Q      Q                    E  E E  E  E  E  S  S E
|-17-----17-----------------|-------9----10----12-10-9-|
|-14-----19-----------------|----10---10----12---------|
|-14-----18-----------------|-11-----------------------|
|---------------------------|--------------------------|
|---------------------------|--------------------------|
|--2------2-----------------|--------------------------|
|  Q      Q
|
|---------------------------|--------------------------|
|---------------------------|--------------------------|
|--6-6-6--6---------------6-|-------2-----4-----6--7-6-|
|--4-4-4--4-4-4-4-4-4-4-4---|-----4----4-----5---------|
|-----------5-5-5-5-5-5-----|--5----------------4--5-4-|
|---------------------------|--------------------------|
|  E S S  E S S S S S S E E    E  E E  E  E  E  S  S E
|
|  E S S  E S S S S S S E E    E  E E  E  E  E  S  S E
|---------------------------|--------------------------|
|---------------------------|--------------------------|
|---------------------------|--------------------------|
|-------------------------7-|--------------------------|
|--4-4-4--4-------------5---|-------4-----5-----7--5-4-|
|--2-2-2--2-2-2-2-2-2-2-----|--2--5----5-----7---------|


  Gtrs II, V
  E E E E E  E  S  S  E    E E  E E  E  E  S  S  E
|-----7---9----11-12-11-|----9-12-9-14-11-16-14-12-|
|---9---9---10----------|-10-----------------------|
|-9---------------------|-------1----2-----4--2--1-|
|-----------------------|----2----2-----4----------|
|-----6---7-----9--7--6-|--4-----------------------|
|-4-7---7----9-11--9--7-|--------------------------|
|
| Gtr IV
|                          E E  E E  E  E  S  S  E
|-----------------------|--------------------------|
|-----------------------|--------------------------|
|-----4---6-----8--9--8-|-------1----2-----4--2--1-|
|---6---6----7----------|----2----2-----4----------|
|-7-------------6--7--6-|--4-----------------------|
|-----------------------|--------------------------|
| E E E E E  E  S  S  E
|
| Gtr IV
| E E E E E  E  S  S  E    E E  E E  E  E  S  S  E
|-----------------------|--------------------------|
|-----------------------|--------------------------|
|-----------------------|--------------------------|
|-----------------------|------------4-----6--4----|
|-----6---7-----9--7--6-|--0-4--7-4-----6--------7-|
|-4-7---7----9----------|-----------------12-11--9-|


  E  E  E  E  E  E  S  S  E
|-9-12-16-12-17-14-19-17-16-|----11-14-11-16-12-17-16-14-|
|---------------------------|-12-------------------------|
|---------------------------|--------------4-----6--4----|
|-------------4-----6--4----|-----4--7--4-----6--------7-|
|-0--4--7--4-----6--------7-|--6-------------------------|
|---------------------------|----------------------------|
|                              E  E  E  E  E  E  S  S  E
|
| E  E  E  E  E  E  S  S  E
|---------------------------|----------------------------|
|---------------------------|----------------------------|
|-------1-----2-----4--2--1-|--------------4-----6--4----|
|----2-----2-----4----------|-----4--7--4-----6--------7-|
|-4----------------11--9--7-|--6-------------------------|
|---------------------------|----------------------------|
|                              E  E  E  E  E  E  S  S  E
|
| E  E  E  E  E  E  S  S  E    E  E  E  E  E  E  S  S  E
|---------------------------|----------------------------|
|---------------------------|----------------------------|
|---------------------------|----------------------------|
|-------------4-----6--4----|--------4-----6-----7--6--4-|
|-0--4--7--4-----6--------7-|-----6-----6-----7--9--7--6-|
|---------------------------|--7-------------------------|
                                                 E  E  E


  Gtrs II, V
   E    E  E  E  E  E  S  S  E    E    E  E  E  E  E  S  S  E
|-11---14-17-14-19-16-21-19-17-|--9---12-16-12-17-14-19-17-16-|
|------------------------------|------------------------------|
|------------------------------|----------4-----6-----8--6----|
|----------4-----6-----7--6--4-|-------6-----6-----7--------9-|
|-------6-----6-----7----------|--7---------------------------|
|--7---------------------------|------------------------------|
|  E    E  E  E  E  E  S  S  E    E    E  E  E  E  E  S  S  E
|
| Gtr IV
|------------------------------|------------------------------|
|------------------------------|------------------------------|
|----------------4-----6--4----|----------4-----6-----8--6----|
|-------4--7--4-----6--------7-|-------6-----6-----7--------9-|
|--6---------------------------|--7---------------------------|
|------------------------------|------------------------------|
|  E    E  E  E  E  E  S  S  E    E    E  E  E  E  E  S  S  E
|
| Gtr IV
|  E    E  E  E  E  E  S  S  E    E    E  E  E  E  E  S  S  E
|------------------------------|------------------------------|
|------------------------------|------------------------------|
|------------------------------|----------1-----2-----4--2--1-|
|----------4-----6-----7--6--4-|-------2-----2-----4----------|
|--9-7--6-----6-----7----------|-11-9--7----------------------|
|--7---------------------------|------------------------------|
   S S  E                         S S  E


   E    E  E  E  E  E  S  S  E   S S  S S S  S S S S  S S S S S S S W
|-12---16-19-16-21-17-23-21-19-|------------------------------------9----|
|------------------------------|------------------------------------9----|
|----------1-----2-----4--2--1-|-9-8--------------------------------6----|
|-------2-----2-----4----------|-----11-9-7--------7----------------6----|
|--4---------------------------|------------11-9-7---11-9-7-6-------4----|
|------------------------------|------------------------------9-7-5------|
|  E    E  E  E  E  E  S  S  E
|
|                                S S  S S S  S S S S  S S S S S S S W
|------------------------------|-----------------------------------------|
|----------4-----5-----7--5----|-----------------------------------------|
|-------4--4--4--6--6--8--6--8-|-9-8-------------------------------------|
|--6----6-----6-----7--------9-|-----11-9-7--------7----------------6----|
|--7---------------------------|------------11-9-7---11-9-7-6-------4----|
|------------------------------|------------------------------9-7-5------|
|  E    E  E  E  E  E  S  S  E
|
|  E    E  E  E  E  E  S  S  E   S S  S S S  S S S S  S S S S S S S W
|------------------------------|-----------------------------------------|
|------------------------------|-2-1-------------------------------------|
|----------1-----2-----4--2--1-|------2-1---------------------------6----|
|-------2-----2-----4----------|----------4--2-1---4--2-1-----------6----|
|-11-9--7----------------------|-----------------4--------4-2-0-----4----|
|------------------------------|--------------------------------4-2-4----|
   S S  E


  Gtrs II, V
                                          |-3--|
  S  S E E E E E  E E   S  S E E E E S S  E  E E
|---------------------|--------------------------|
|---------------------|--------------------------|
|---------------------|--------------------------|
|-----------------6---|--------------------------|
|--------6---7------7-|--------6---7------9--7-6-|
|-4--4-4---4---4------|-4--4-4---4---0-7-(7)-----|
|
| Gtr I
|                                         |-3--|
| Q.       E Q    E E   Q.       E Q      E  E E
|---------------------|------------2------4--2-0-|
|-9-------------------|------------0------0--0-0-|
|-8----------9---11-9-|-1------------------------|
|-6----------6----9-9-|-1------------------------|
|---------------------|--------------------------|
|---------------------|--------------------------|
| H
|
| Gtr IV
| H          Q    Q     H          Q      Q
|---------------------|--------------------------|
|---------------------|--------------------------|
|---------------------|--------------------------|
|---------------------|--------------------------|
|-6----------7----4---|-6----------9------7------|
|-4-------------------|-4----------7------5------|


  S S E E E  E E E E   E E E  E E E  E  E
|--------------------|---------------------|
|--------------------|---------------------|
|--------------------|-----6--8------8--9--|
|----------------6---|---6--------8--------|
|-------6----7-----7-|-7--------9----------|
|-4-4-4---4----4-----|---------------------|
|
| Q     E Q.     E     E E E  E E E  E  E
|--------------------|-----9-11-----11-12--|
|--------------------|---------------------|
|-8-------9----------|---4-6--8---6--8--9--|
|-6-------6----------|-6-6------8-8--------|
|--------------------|-7--------9----------|
|--------------------|---------------------|
|
| H          H         E E E  E E E  E  E
|--------------------|---------------------|
|--------------------|---------------------|
|--------------------|---------------------|
|------------6-------|---------------1--2--|
|-6----------7-------|-----4--6---1--------|
|-4----------0-------|-0-4------2----------|


  Gtr I
  S S E E  S S  E S S  E.      S S E Q     Q      Q
|----------------------------|-------------------------------|
|-9-9-9--------10-----12-----|--------------------7----------|
|-8-8-8------9------9--------|-8-8-8-------9------6----------|
|-9-9-9---11------9----------|-9-9-9-------6-----------------|
|----------------------------|-6-6-6-------------------------|
|----------------------------|-------------------------------|
|
| Gtr IV
|                                                 |---3---|
| S S E E  E    E E    E   E   S S E E S S E S S  E   E   E
|----------------------------|-------------------------------|
|----------------------9-----|-------4-----5------7---5---4--|
|-------8-------9-6----9---9-|-------4-----4------4--(4)-(4)-|
|-6-6-6-6--6----6-6----9---9-|-2-2-2---4-6-6-2-4--4--(4)-(4)-|
|-6-6-6----6--------------11-|-------------------------------|
|----------------------------|-------------------------------|
|
| Gtr II
|                                                 |---3---|
| S S E E  E    E E    E   E   S S E E E   E S S  E   E   E
|----------------------------|-------------------------------|
|----------------------------|-------------------------------|
|----------------------------|-------------------------------|
|----------------------6-----|-------------------------------|
|-------6-------7----------7-|-------6-----7------9---7---6--|
|-4-4-4----4------4----------|-4-4-4---4-----0-7-(7)---------|


  S S E Q   S S E Q      E E E E E  E  E  E
|----------------------|------------------9-|
|----------------------|-----7-9-7-11-12----|
|-8-8-8-----4-4-4------|-4-9----------------|
|-9-9-9-----6-6-6------|--------------------|
|----------------------|--------------------|
|----------------------|--------------------|
|
| S S E E E E   E E  E   E E E E E  E  E  E
|----------------------|--------------------|
|-----------------9----|--------------------|
|-------8---9---6-9--9-|--------------------|
|-6-6-6-6-6-6---6-9--9-|-6-9-8-9-8-11--9-11-|
|-6-6-6---6---------11-|--------------------|
|----------------------|--------------------|
|
| S S E E E E   E E  E   E E E E E  E  E  E
|----------------------|--------------------|
|----------------------|--------------------|
|----------------------|-----6-8-------8--9-|
|-----------------6----|---6--------8-------|
|-------6---7--------7-|-7-------9----------|
|-4-4-4---4-----4------|--------------------|


  Gtr I
  S S E E  S S  E S S  E.      S S E Q     Q      Q
|----------------------------|-------------------------------|
|-9-9-9--------10-----12-----|--------------------7----------|
|-8-8-8------9------9--------|-8-8-8-------9------6----------|
|-9-9-9---11------9----------|-9-9-9-------6-----------------|
|----------------------------|-6-6-6-------------------------|
|----------------------------|-------------------------------|
|
| Gtr IV
|                                                 |---3---|
| S S E E  E    E E    E   E   S S E E S S E S S  E   E   E
|----------------------------|-------------------------------|
|----------------------9-----|-------4-----5------7---5---4--|
|-------8-------9-6----9---9-|-------4-----4------4--(4)-(4)-|
|-6-6-6-6--6----6-6----9---9-|-2-2-2---4-6-6-2-4--4--(4)-(4)-|
|-6-6-6----6--------------11-|-------------------------------|
|----------------------------|-------------------------------|
|
| Gtr II
|                                                 |---3---|
| S S E E  E    E E    E   E   S S E E E   E S S  E   E   E
|----------------------------|-------------------------------|
|----------------------------|-------------------------------|
|----------------------------|-------------------------------|
|----------------------6-----|-------------------------------|
|-------6-------7----------7-|-------6-----7------9---7---6--|
|-4-4-4----4------4----------|-4-4-4---4-----0-7-(7)---------|


  S S E Q   S S E Q      E E E E E  E  E  E
|----------------------|------------------9-|
|----------------------|-----7-9-7-11-12----|
|-8-8-8-----4-4-4------|-4-9----------------|
|-9-9-9-----6-4-6------|--------------------|
|----------------------|--------------------|
|----------------------|--------------------|
|
| S S E E E E   E E  E   E E E E E  E  E  E
|----------------------|--------------------|
|-----------------9----|--------------------|
|-------8---9---6-9--9-|--------------------|
|-6-6-6-6-6-6---6-9--9-|-6-9-8-9-8-11--9-11-|
|-6-6-6---6---------11-|--------------------|
|----------------------|--------------------|
|
| S S E E E E   E E  E   E E E E E  E  E  E
|----------------------|--------------------|
|----------------------|--------------------|
|----------------------|-----6-8-------8--9-|
|-----------------6----|---6--------8-------|
|-------6---7--------7-|-7-------9----------|
|-4-4-4---4-----4------|--------------------|


  Gtr I
                                                    |---3---|
   E   S S E S S E S S E S S   E   S S E S S E S S  E   E   E
|-14---------2-2-2-------2-2-|---------------------------------|
|--2---2-2-2-------2-2-2-----|---------------3-3-3--5---3---2--|
|--2---2-2-2-2-2-2-2-2-2-2-2-|-2---2-2-2-2-2-2-2-2--2---2---2--|
|--4---4-4-4-4-4-4-4-4-4-4-4-|-4---4-4-4-4-4-------------------|
|----------------------------|---------------------------------|
|----------------------------|---------------------------------|
|
| Gtr IV
|                                                   |---3---|
|  S S E   E E   E E   E E     S S E   E S S E S S  E   E   E
|----------------------------|---------------------------------|
|----------------------7-----|---------2-----3------5---3---2--|
|----------6-----7-4---7-7---|---------2-----2------2--(2)-(2)-|
|--4-4-4---4-4---4-4---7-7---|-----------2-4-4-0-2--2--(2)-(2)-|
|--4-4-4-----4-----------9---|-5-5-5---------------------------|
|----------------------------|---------------------------------|
|
| Gtrs II, V
|                                                   |---3---|
|  S S E   E E   E E   E E     S S E   E E   E S S  E   E   E
|----------------------------|---------------------------------|
|----------------------------|---------------------------------|
|----------------------------|---------------------------------|
|----------------------4-----|---------------------------------|
|----------4-----5-------5---|---------4-----5------7---5---4--|
|--2-2-2-----2-----2---------|-2-2-2-----2-----0-5-(5)---------|


   E  E   Q   E E   Q   E E E E E E E E
|---------------------|------------------|
|-10-10-------7-7-----|---2-5-7---5-7-9--|
|--2--2-------7-7-----|-2-------4--------|
|--4--4-------4-4-----|------------------|
|---------------------|-5---2-4-----4-5--|
|---------------------|---2-----0-4------|
|
|  S  S E E E E E E E   E E E E E E E E
|---------------------|------------------|
|-----------------7---|------------------|
|---------6---7-4-7-7-|------------------|
|--4--4-4-4-4-4-4-7-7-|-4-7-6-7-6-9-7-9--|
|--4--4-4---4-------9-|------------------|
|---------------------|------------------|
|
|  S  S E E E E E E E   E E E E E E E E
|---------------------|------------------|
|---------------------|------------------|
|---------------------|------------------|
|-----------------4---|------------------|
|---------4---5-----5-|-5---4-6-----4-5--|
|--2--2-2---2---2-----|---2-----0-4------|


  Gtr I
                                                    |---3---|
   E   S S E S S E S S E S S   E   S S E S S E S S  E   E   E
|-14---------2-2-2-------2-2-|---------------------------------|
|--2---2-2-2-------2-2-2-----|---------------3-3-3--5---3---2--|
|--2---2-2-2-2-2-2-2-2-2-2-2-|-2---2-2-2-2-2-2-2-2--2---2---2--|
|--4---4-4-4-4-4-4-4-4-4-4-4-|-4---4-4-4-4-4-------------------|
|----------------------------|---------------------------------|
|----------------------------|---------------------------------|
|
| Gtr IV
|                                                   |---3---|
|  S S E   E E   E E   E E     S S E   E S S E S S  E   E   E
|----------------------------|---------------------------------|
|----------------------7-----|---------2-----3------5---3---2--|
|----------6-----7-4---7-7---|---------2-----2------2--(2)-(2)-|
|--4-4-4---4-4---4-4---7-7---|-----------2-4-4-0-2--2--(2)-(2)-|
|--4-4-4-----4-----------9---|-5-5-5---------------------------|
|----------------------------|---------------------------------|
|
| Gtrs II, V
|                                                   |---3---|
|  S S E   E E   E E   E E     S S E   E E   E S S  E   E   E
|----------------------------|---------------------------------|
|----------------------------|---------------------------------|
|----------------------------|---------------------------------|
|----------------------4-----|---------------------------------|
|----------4-----5-------5---|---------4-----5------7---5---4--|
|--2-2-2-----2-----2---------|-2-2-2-----2-----0-5-(5)---------|


   E    E Q   E E Q     E E E E E E E E
|---------------------|------------------|
|-10---10-----7-7-----|---2-5-7---5-7-9--|
|--2----2-----7-7-----|-2-------4--------|
|--4----4-----4-4-----|------------------|
|---------------------|------------------|
|---------------------|------------------|
|
|  S S  E E E E E E E   E E E E E E E E
|---------------------|------------------|
|-----------------7---|------------------|
|---------6---7-4-7-7-|------------------|
|--4-4--4-4-4-4-4-7-7-|-4-7-6-7-6-9-7-9--|
|--4-4--4---4-------9-|------------------|
|---------------------|------------------|
|
|  S S  E E E E E E E   E E E E E E E E
|---------------------|------------------|
|---------------------|------------------|
|---------------------|------------------|
|-----------------4---|------------------|
|---------4---5-----5-|-5---4-6-----4-5--|
|--2-2--2---2---2-----|---2-----0-4------|


  Gtrs II, V
  E E  E E  E E S  S E
|-------------------------|
|---7-10-7-12-8-9-10-9----|
|-7-----------------------|
|-------------------------|
|------4----5---7--5-4----|
|-2-5----5----7-----------|
|
| Gtr IV
|-------------------------|
|-------------------------|
|------2----4---6--7-6----|
|---4----4----5-----------|
|-5-------------4--5-4----|
|-------------------------|
| E E  E E  E E S  S E
|
| Gtr IV
| E E  E E  E E S  S E
|-------------------------|
|-------------------------|
|-------------------------|
|-------------------------|
|------4----5---7--5-4----|
|-2-5----5----7-----------|


  Gtrs II, V
  E E E E E  E  S  S  E    E E  E E  E  E  S  S  E
|-----7---9----11-12-11-|----9-12-9-14-11-16-14-12-|
|---9---9---10----------|-10-----------------------|
|-9---------------------|-------1----2-----4--2--1-|
|-----------------------|----2----2-----4----------|
|-----6---7-----9--7--6-|--4-----------------------|
|-4-7---7----9-11--9--7-|--------------------------|
|
| Gtr IV
|                          E E  E E  E  E  S  S  E
|-----------------------|--------------------------|
|-----------------------|--------------------------|
|-----4---6-----8--9--8-|-------1----2-----4--2--1-|
|---6---6----7----------|----2----2-----4----------|
|-7-------------6--7--6-|--4-----------------------|
|-----------------------|--------------------------|
| E E E E E  E  S  S  E
|
| Gtr IV
| E E E E E  E  S  S  E    E E  E E  E  E  S  S  E
|-----------------------|--------------------------|
|-----------------------|--------------------------|
|-----------------------|--------------------------|
|-----------------------|------------4-----6--4----|
|-----6---7-----9--7--6-|--0-4--7-4-----6--------7-|
|-4-7---7----9----------|-----------------12-11--9-|


  E  E  E  E  E  E  S  S  E
|-9-12-16-12-17-14-19-17-16-|----11-14-11-16-12-17-16-14-|
|---------------------------|-12-------------------------|
|---------------------------|--------------4-----6--4----|
|-------------4-----6--4----|-----4--7--4-----6--------7-|
|-0--4--7--4-----6--------7-|--6-------------------------|
|---------------------------|----------------------------|
|                              E  E  E  E  E  E  S  S  E
|
| E  E  E  E  E  E  S  S  E
|---------------------------|----------------------------|
|---------------------------|----------------------------|
|-------1-----2-----4--2--1-|--------------4-----6--4----|
|----2-----2-----4----------|-----4--7--4-----6--------7-|
|-4----------------11--9--7-|--6-------------------------|
|---------------------------|----------------------------|
|                              E  E  E  E  E  E  S  S  E
|
| E  E  E  E  E  E  S  S  E    E  E  E  E  E  E  S  S  E
|---------------------------|----------------------------|
|---------------------------|----------------------------|
|---------------------------|----------------------------|
|-------------4-----6--4----|--------4-----6-----7--6--4-|
|-0--4--7--4-----6--------7-|-----6-----6-----7--9--7--6-|
|---------------------------|--7-------------------------|
                                                 E  E  E


  Gtrs II, V
   E    E  E  E  E  E  S  S  E    E    E  E  E  E  E  S  S  E
|-11---14-17-14-19-16-21-19-17-|--9---12-16-12-17-14-19-17-16-|
|------------------------------|------------------------------|
|------------------------------|----------4-----6-----8--6----|
|----------4-----6-----7--6--4-|-------6-----6-----7--------9-|
|-------6-----6-----7----------|--7---------------------------|
|--7---------------------------|------------------------------|
|  E    E  E  E  E  E  S  S  E    E    E  E  E  E  E  S  S  E
|
| Gtr IV
|------------------------------|------------------------------|
|------------------------------|------------------------------|
|----------------4-----6--4----|----------4-----6-----8--6----|
|-------4--7--4-----6--------7-|-------6-----6-----7--------9-|
|--6---------------------------|--7---------------------------|
|------------------------------|------------------------------|
|  E    E  E  E  E  E  S  S  E    E    E  E  E  E  E  S  S  E
|
| Gtr IV
|  E    E  E  E  E  E  S  S  E    E    E  E  E  E  E  S  S  E
|------------------------------|------------------------------|
|------------------------------|------------------------------|
|------------------------------|----------1-----2-----4--2--1-|
|----------4-----6-----7--6--4-|-------2-----2-----4----------|
|--9-7--6-----6-----7----------|-11-9--7----------------------|
|--7---------------------------|------------------------------|
   S S  E                         S S  E


   E    E  E  E  E  E  S  S  E   S S  S S S  S S S S  S S S S S S S W
|-12---16-19-16-21-17-23-21-19-|------------------------------------9----|
|------------------------------|------------------------------------9----|
|----------1-----2-----4--2--1-|-9p8--------------------------------6----|
|-------2-----2-----4----------|-----11-9-7--------7----------------6----|
|--4---------------------------|------------11-9-7---11-9-7-6-------4----|
|------------------------------|------------------------------9-7-5------|
|  E    E  E  E  E  E  S  S  E
|
|                                S S  S S S  S S S S  S S S S S S S W
|------------------------------|-----------------------------------------|
|----------4-----5-----7--5----|-----------------------------------------|
|-------4--4--4--6--6--8--6--8-|-9p8-------------------------------------|
|--6----6-----6-----7--------9-|-----11-9-7--------7----------------6----|
|--7---------------------------|------------11-9-7---11-9-7-6-------4----|
|------------------------------|------------------------------9-7-5------|
|  E    E  E  E  E  E  S  S  E
|
|  E    E  E  E  E  E  S  S  E   S S  S S S  S S S S  S S S S S S S W
|------------------------------|-----------------------------------------|
|------------------------------|-2p1-------------------------------------|
|----------1-----2-----4--2--1-|------2-1---------------------------6----|
|-------2-----2-----4----------|----------4--2-1---4--2-1-----------6----|
|-11-9--7----------------------|-----------------4--------4-2-0-----4----|
|------------------------------|--------------------------------4-2-4----|
   S S  E


  Q=106
  Wx4
|--------|
|--------|
|--------|
|--------|
|--------|
|--------|


 4/4
  Gtr IV
  E E E E E E E S S E E E E E E  E  E   E E E E E E E S S E E E E Q  Q
|-------------------------------------|---------------------------------|
|-------------------------------------|---------------------------7-----|
|---9-8---9-8---8-9-8---9-8--------11-|---9-8---9-8---8-9-8---9-8-8--9--|
|---9-9-9-9-------------9-9---9-11----|---9-9-9-9-------------9-9----7--|
|-6-----7-----7-------6-----7---------|-6-----7-----7-------6-----------|
|-------------------------------------|---------------------------------|
|
| Gtr IV
| E E E E E E E S S E E E E E E  E  E   E E E E E E E S S E E E E Q  Q
|-------------------------------------|---------------------------------|
|-------------------------------------|---------------------------------|
|-------------------------------------|---------------------------------|
|---------------4-6-4-----------------|---------------6-7-6---6---------|
|---7-6---7-6-----------7-6---6--7--9-|---7-6---7-6-------------7-9--7--|
|-4-----4-----4-------4-----7---------|-4-----4-----4-------4-----7--5--|
|
| Gtr II
| E E E E E E E S S E E E E E E  E  E   E E E E E E E S S E E E E Q  Q
|-------------------------------------|---------------------------------|
|-------------------------------------|---------------------------------|
|---------------4-6-4------------1--2-|---------------4-6-4-------------|
|-----------------------------4-------|------------------------------2--|
|---------------------------6---------|---------------------------2--4--|
|-4-4-4-4-4-4-4-------4-4-4-----------|-4-4-4-4-4-4-4-------4-4-4-0-----|


  E E E E E E E S S E E E E E E  E  E   E E E E E E E S S E E E E Q  Q
|-------------------------------------|-----------------------------------|
|-------------------------------------|---------------------------7-------|
|---9-8---9-8---8-9-8---9-8--------11-|---9-8---9-8---8-9-8---9-8-8--9----|
|---9-9-9-9-------------9-9---9-11----|---9-9-9---------------9-9----7----|
|-6-----7-----7-------6-----7---------|-6-----------7-------6-------------|
|-------------------------------------|-----------------------------------|
|
| E E E E E E E S S E E E E E E  E  E   E E E E E E E S S E E E E Q  Q
|-------------------------------------|-----------------------------------|
|-------------------------------------|-----------------------------------|
|-------------------------------------|-----------------------------------|
|---------------4-6-4-----------------|---------------6-7-6---6-----------|
|---7-6---7-6-----------7-6---6--7--9-|---7-6---7-6-------------7-9--7----|
|-4-----4-----4-------4-----7---------|-4-----4-----4-------4-----7--5----|
|
| E E E E E E E S S E E E E E E  E  E   E E E E E E E S S E E E E Q  Q
|-------------------------------------|-----------------------------------|
|-------------------------------------|-----------------------------------|
|---------------4-6-4------------1--2-|---------------4-6-4---------------|
|-----------------------------4-------|------------------------------2----|
|---------------------------6---------|---------------------------2--4----|
|-4-4-4-4-4-4-4-------4-4-4-----------|-4-4-4-4-4-4-4-------4-4-4-0-------|


  Q=106
 4/4
  Gtr IV
   E E E E E E E S S E E E E E E  E  E   E E E E E E E S S E E E  E Q  Q
|--------------------------------------|----------------------------------|
|--------------------------------------|----------------------------7-----|
|----9-8---9-8---8-9-8---9-8--------11-|---9-8---9-8---8-9-8---9--8-8--9--|
|----9-9-9-9-------------9-9---9-11----|---9-9-9-9-------------9--9----7--|
|--6-----7-----7-------6-----7---------|-6-----7-----7-------6------------|
|--------------------------------------|----------------------------------|
|
| Gtr IV
|  E E E E E E E S S E E E E E E  E  E   E E E E E E E S S E E E  E Q  Q
|--------------------------------------|----------------------------------|
|--------------------------------------|----------------------------------|
|--------------------------------------|----------------------------------|
|----------------6-7-6-----------------|---------------6-7-6---6----------|
|----7-6---7-6-----------7-6---6--7--9-|---7-6---7-6--------------7-9--7--|
|--4-----4-----4-------4-----7---------|-4-----4-----4-------4------7--5--|
|
| Gtrs II, V
|  E E E E E E E S S E E E E E E  E  E   E E E E E E E S S E E E  E Q  Q
|-11-7-----7-----7-9-7-----------------|-7--------------------------7--5--|
|------9-----9-----------9-------------|---9-----9-----4-5-4--------7--2--|
|--------8-----8-4-6-4-----8------1--2-|-----8-----8---4-6-4-8------------|
|----------------------9-------4-------|-------9-----9---------9-------2--|
|----------------------------6---------|-------------------------11-2--4--|
|--4-4-4-4-4-4-4-------4-4-4-----------|-4-4-4-4-4-4-4-------4-4--4-0-----|


   E E E E E E E S S E E E E E E  E  E   E E E E E E E S S E E E  E Q  Q
|--------------------------------------|------------------------------------|
|--------------------------------------|----------------------------7-------|
|----9-8---9-8---8-9-8---9-8--------11-|---9-8---9-8---8-9-8---9--8-8--9----|
|----9-9-9-9-------------9-9---9-11----|---9-9-9---------------9--9----7----|
|--6-----7-----7-------6-----7---------|-6-----------7-------6--------------|
|--------------------------------------|------------------------------------|
|
|  E E E E E E E S S E E E E E E  E  E   E E E E E E E S S E E E  E Q  Q
|--------------------------------------|------------------------------------|
|--------------------------------------|------------------------------------|
|--------------------------------------|------------------------------------|
|----------------6-7-6-----------------|---------------6-7-6---6------------|
|----7-6---7-6-----------7-6---6--7--9-|---7-6---7-6--------------7-9--7----|
|--4-----4-----4-------4-----7---------|-4-----4-----4-------4------7--5----|
|
|  E E E E E E E S S E E E E E E  E  E   E E E E E E E S S E E E  E Q  Q
|-11-7-----7-----7-9-7-----------------|-7--------------------------7--5----|
|------9-----9-----------9-------------|---9-----9-----4-5-4--------7--2----|
|--------8-----8-4-6-4-----8------1--2-|-----8-----8---4-6-4-8--------------|
|----------------------9-------4-------|-------9-----9---------9-------2----|
|----------------------------6---------|-------------------------11-2--4----|
|--4-4-4-4-4-4-4-------4-4-4-----------|-4-4-4-4-4-4-4-------4-4--4-0-------|


  Q=106
 4/4
  Gtr IV
   E  E  E  E  E  E  E  S  S  E  E  E  E E  E  E  E    E E E E E E E S S E E E E Q  Q
|---------------------------------------------------|----------------------------------|
|---------------------------------------------------|----------------------------7-----|
|-----9--8-----9--8-----8--9--8-----9--8---------11-|----9-8---9-8---8-9-8---9-8-8--9--|
|-----9--9--9--9--------------------9--9----9-11----|----9-9-9-9-------------9-9----7--|
|--6--------7--------7-----------6-------7----------|--6-----7-----7-------6-----------|
|---------------------------------------------------|----------------------------------|
|
| Gtr IV
|  E  E  E  E  E  E  E  S  S  E  E  E  E E  E  E  E    E E E E E E E S S E E E E Q  Q
|---------------------------------------------------|----------------------------------|
|---------------------------------------------------|----------------------------------|
|---------------------------------------------------|----------------------------------|
|-----------------------6--7--6---------------------|----------------6-7-6---6---------|
|-----7--6-----7--6-----------------7--6----6--7--9-|----7-6---7-6-------------7-9--7--|
|--4--------4--------4-----------4-------7----------|--4-----4-----4-------4-----7--5--|
|
| Gtrs II, V
|  E  E  E  E  E  E  E  S  S  E  E  E  E E  E  E  E    E E E E E E E S S E E E E Q  Q
|-16-------------------11-12-11------------------14-|-11-7-----7-----7-9-7-------7--5--|
|----16-------16---------------------------12-14----|------9-----9-----------9---7--2--|
|-------16-13----16-13--4--6--4----16-13-9-----1--2-|--------8-----8-4-6-4-----8-------|
|-------------------------------13----------4-------|----------------------9--------2--|
|----------------------------------------6----------|----------------------------2--4--|
|--4--4--4--4--4--4--4-----------4--4--4------------|--4-4-4-4-4-4-4-------4-4-4-0-----|


  E E E  E E E  E  S  S  E  E E E E  E  E  E   E E E E E E E S S E E E E Q  Q
|--------------------------------------------|-----------------------------------|
|--------------------------------------------|---------------------------7-------|
|---9-8----9-8-----8--9--8----9-8---------11-|---9-8---9-8---8-9-8---9-8-8--9----|
|---9-9--9-9------------------9-9----9-11----|---9-9-9---------------9-9----7----|
|-6------7------7-----------6-----7----------|-6-----------7-------6-------------|
|--------------------------------------------|-----------------------------------|
|
| E E E  E E E  E  S  S  E  E E E E  E  E  E   E E E E E E E S S E E E E Q  Q
|--------------------------------------------|-----------------------------------|
|--------------------------------------------|-----------------------------------|
|--------------------------------------------|-----------------------------------|
|------------------6--7--6-------------------|---------------6-7-6---6-----------|
|---7-6----7-6----------------7-6----6--7--9-|---7-6---7-6-------------7-9--7----|
|-4------4------4-----------4-----7----------|-4-----4-----4-------4-----7--5----|
|
| E E E  E E E  E  S  S  E  E E E E  E  E  E   E E E E E E E S S E E E E Q  Q
|-----------------------------------------14-|---------------------------7--5----|
|-9---------------------------------12-14----|-4-------------4-5-4-------7--2----|
|---8------8-------4--6--4----8---9-----1--2-|---4-1---4-1---4-6-4---4-1---------|
|-----9------9----13-14-13------9----4-------|-------1-----1-------1--------2----|
|-------11-----11----------11-----6----------|---------------------------2--4----|
|-4-4-4--4-4-4--4-----------4-4-4------------|-4-4-4-4-4-4-4-------4-4-4-0-------|



Duration Legend
---------------
W - whole; H - half; Q - quarter; E - 8th; S - 16th; T - 32nd; X - 64th; a - acciaccatura
+ - note tied to previous; . - note dotted; .. - note double dotted
Uncapitalized letters represent notes that are staccato (1/2 duration)
Irregular groupings are notated above the duration line
Duration letters will always appear directly above the note/fret number it represents the
duration for.  Duration letters with no fret number below them represent rests.  Multi-
bar rests are notated in the form Wxn, where n is the number of bars to rest for.  Low
melody durations appear below the staff

Tablature Legend
----------------
 h   - hammer-on
 p   - pull-off
 b   - bend
 pb  - pre-bend
 r   - bend release (if no number after the r, then release immediately)
 /\  - slide into or out of (from/to "nowhere")
 s   - legato slide
 S   - shift slide
<n> - natural harmonic
[n]  - artificial harmonic
n(n) - tapped harmonic
 ~   - vibrato
 tr  - trill
 T   - tap
 TP  - trem. picking
 PM  - palm muting
\n/  - tremolo bar dip; n = amount to dip
 \n  - tremolo bar down
 n/  - tremolo bar up
/n\  - tremolo bar inverted dip
 =   - hold bend; also acts as connecting device for hammers/pulls
 <> - volume swell (louder/softer)
 x   - on rhythm slash represents muted slash
 o   - on rhythm slash represents single note slash

Misc Legend
-----------
 |  - bar
||  - double bar
||o - repeat start
o|| - repeat end
*|  - double bar (ending)
 :  - bar (freetime)
 $  - Segno
 &  - Coda
Tempo markers - <E/E./Q/Q./H/H.> = BPM(8/16=s8/s16), where s8 = swing 8ths, s16 = swing 16ths


** Generated using Power Tab Editor by Brad Larsen: The Official Power Tab Web Site