#----------------------------------PLEASE NOTE---------------------------------#
#This file is the author's own work and represents their interpretation of the #
#song. You may only use this file for private study, scholarship, or research. #
#------------------------------------------------------------------------------#

IN THE THRONE ROOM
As recorded by Blood Vacuum
(From the 2005 Album TEMPORAL STORM)

Transcribed by MC

Words by MC Music by Matthew Calestino
Arranged by M.Calestino


Gtr I (D G C F A D) - 'Harpsichord'
Gtr II (D G C F A D) - 'flute'
Gtr III (D G C F A D) - 'trumpets'
Gtr IV (E A D G B E) - 'Untitled'

  Q=76
 4/4
  Gtr IV
  H                +H
|----------------|------------------|
|----------------|------------------|
|----------------|------------------|
|----------------|------------------|
|----------------|------------------|
|-0--------------|-(0)--------------|
|
| Gtr I
| E   E   E   E     E   E   E    E
|-------------4--|---------------2--|
|---------5---5--|----------4-------|
|---------6------|------4--------4--|
|-----6----------|--4-------4-------|
|-4--(4)-(4)-(4)-|--2--(2)-(2)--(2)-|
|-4--------------|------------------|


  H                        +H
|------------------------|------------------|
|------------------------|------------------|
|------------------------|------------------|
|------------------------|------------------|
|------------------------|------------------|
|-0----------------------|-(0)--------------|
|
| E     E      E      E     E   E   E   E
|---------------------5--|--4---------------|
|--------------5------5--|--4---4-----------|
|-------2----------------|----------5-------|
|-2-----2------2---------|------6-------6---|
|-0----(0)----(0)----(0)-|----------6---6---|
|------------------------|--4--(4)-(4)-(4)--|


  Q=76
 4/4
  Gtr IV
  H                +H
|----------------|------------------|
|----------------|------------------|
|----------------|------------------|
|----------------|------------------|
|----------------|------------------|
|-0--------------|-(0)--------------|
|
| Gtr I
| E   E   E   E     E   E   E    E
|-------------4--|---------------2--|
|---------5---5--|----------4-------|
|---------6------|------4--------4--|
|-----6----------|--4-------4-------|
|-4--(4)-(4)-(4)-|--2--(2)-(2)--(2)-|
|-4--------------|------------------|


  H                        +H
|------------------------|------------------|
|------------------------|------------------|
|------------------------|------------------|
|------------------------|------------------|
|------------------------|------------------|
|-0----------------------|-(0)--------------|
|
| E     E      E      E     E   E   E   E
|---------------------5--|--4---------------|
|--------------5------5--|--4---4-----------|
|-------2----------------|----------5-------|
|-2-----2------2---------|------6-------6---|
|-0----(0)----(0)----(0)-|----------6---6---|
|------------------------|--4--(4)-(4)-(4)--|


  Q=76
 4/4
  Gtr II
  ~
  Q       E   E     E   E   S   S  S
|-9------11--12--|-11--12--14--12-11--|
|----------------|--------------------|
|----------------|--------------------|
|----------------|--------------------|
|----------------|--------------------|
|----------------|--------------------|
|
| Gtr IV
| H                +H
|----------------|--------------------|
|----------------|--------------------|
|----------------|--------------------|
|----------------|--------------------|
|----------------|--------------------|
|-0--------------|-(0)----------------|
|
| Gtr I
| E   E   E   E     E   E   E      E
|-------------4--|-----------------2--|
|---------5---5--|----------4---------|
|---------6------|------4----------4--|
|-----6----------|--4-------4---------|
|-4--(4)-(4)-(4)-|--2--(2)-(2)----(2)-|
|-4--------------|--------------------|


   T  T  T  T  T   T  T  T  T   T  T  E        E   E   E
|-11-12-14-12-14--16-14-16-17--16-17-19-----|-21---------------|
|-------------------------------------------|-----16--13-------|
|-------------------------------------------|------------------|
|-------------------------------------------|------------------|
|-------------------------------------------|------------------|
|-------------------------------------------|------------------|
|
|  H                                          +H
|-------------------------------------------|------------------|
|-------------------------------------------|------------------|
|-------------------------------------------|------------------|
|-------------------------------------------|------------------|
|-------------------------------------------|------------------|
|--0----------------------------------------|-(0)--------------|
|
|  E           E            E            E     E   E   E   E
|----------------------------------------5--|--4---------------|
|---------------------------5------------5--|--4---4-----------|
|--------------2----------------------------|----------5-------|
|--2-----------2------------2---------------|------6-------6---|
|--0----------(0)----------(0)----------(0)-|----------6---6---|
|-------------------------------------------|--4--(4)-(4)-(4)--|


  Q=76
 4/4
  Gtr II
                                ~~
   S  S  S   S  S   S  S   S    E  S   S  S   S  S   S
|---------------------19--24-|-23-19--14---------------|
|-----------19-21--22-14--12-|-12--------16---------16-|
|-18-20-21--11-13--14--------|---------------16-14-----|
|-11-13-14-------------------|-------------------------|
|----------------------------|-------------------------|
|----------------------------|-------------------------|
|
| GtrGtr III
|  E  s  s   e  e               Q
|--9---------9-16------------|-11----------------------|
|--9--9--9---9-14------------|-12----------------------|
|-----6--6-------------------|-------------------------|
|----------------------------|-------------------------|
|----------------------------|-------------------------|
|----------------------------|-------------------------|
|
| Gtr I
|  E     E      E      E        E  E      E      E
|----------------------4-----|-------------------2-----|
|---------------5------5-----|------------4------------|
|---------------6------------|-----4-------------4-----|
|--------6-------------------|--4---------4------------|
|--4----(4)----(4)----(4)----|--2-(2)----(2)----(2)----|
|--4-------------------------|-------------------------|


   Q         S   S  S.    E  S   S  S   S  S
|-17--------12-----17--|-20--------------------|
|---------------12-----|-----------19--21------|
|----------------------|--------17--------20---|
|----------------------|----18-----------------|
|----------------------|-----------------------|
|----------------------|-----------------------|
|
|  E  s   s  e   e        Q
|-16--------14---------|-11--------------------|
|-17-17--17-----17-----|-13--------------------|
|-----------16---------|-----------------------|
|----18--18-----18-----|-----------------------|
|----------------------|-----------------------|
|----------------------|-----------------------|
|
|  E  E      E      E     E  E      E      E
|-------------------5--|--4--------------------|
|------------5------5--|--4--4-----------------|
|-----2----------------|------------5----------|
|--2--2------2---------|-----6-------------6---|
|--0-(0)----(0)----(0)-|------------6------6---|
|----------------------|--4-(4)----(4)----(4)--|


  Q=76
 4/4
  Gtr II
                                ~~
   S  S  S   S  S   S  S   S    E  S   S  S   S  S   S
|---------------------19--24-|-23-19--14---------------|
|-----------19-21--22-14--12-|-12--------16---------16-|
|-18-20-21--11-13--14--------|---------------16-14-----|
|-11-13-14-------------------|-------------------------|
|----------------------------|-------------------------|
|----------------------------|-------------------------|
|
|    Gtr III
|  E     s   s  s   E           E  s   s  s   E
|--------9---9--9------------|----11--11-11------------|
|--------9---9--9------------|----12--12-12------------|
|----------------------------|-------------------------|
|----------------------------|-------------------------|
|----------------------------|-------------------------|
|----------------------------|-------------------------|
|
| Gtr I
|  E     E      E      E        E  E      E      E
|----------------------4-----|-------------------2-----|
|---------------5------5-----|------------4------------|
|---------------6------------|-----4-------------4-----|
|--------6-------------------|--4---------4------------|
|--4----(4)----(4)----(4)----|--2-(2)----(2)----(2)----|
|--4-------------------------|-------------------------|


   Q         S   S  S.    E  S   S  S   S  S
|-17--------12-----17--|-20--------------------|
|---------------12-----|-----------19--21------|
|----------------------|--------17--------20---|
|----------------------|----18-----------------|
|----------------------|-----------------------|
|----------------------|-----------------------|
|
|  E  s   s  e      S     Q
|----12--12-12-----14--|-11--------------------|
|----12--12-12-----12--|-13--------------------|
|----------------------|-----------------------|
|----------------------|-----------------------|
|----------------------|-----------------------|
|----------------------|-----------------------|
|
|  E  E      E      E     E  E      E      E
|-------------------5--|--4--------------------|
|------------5------5--|--4--4-----------------|
|-----2----------------|------------5----------|
|--2--2------2---------|-----6-------------6---|
|--0-(0)----(0)----(0)-|------------6------6---|
|----------------------|--4-(4)----(4)----(4)--|


  Q=76
 4/4
  Gtr II
                                ~~
   S  S  S   S  S   S  S   S    E  S   S  S   S  S   S
|---------------------19--24-|-23-19--14---------------|
|-----------19-21--22-14--12-|-12--------16---------16-|
|-18-20-21--11-13--14--------|---------------16-14-----|
|-11-13-14-------------------|-------------------------|
|----------------------------|-------------------------|
|----------------------------|-------------------------|
|
| Gtr III
|  E  s  s   e  e               Q
|--9---------9-16------------|-11----------------------|
|--9--9--9---9-14------------|-12----------------------|
|-----6--6-------------------|-------------------------|
|----------------------------|-------------------------|
|----------------------------|-------------------------|
|----------------------------|-------------------------|
|
| Gtr I
|  E     E      E      E        E  E      E      E
|----------------------4-----|-------------------2-----|
|---------------5------5-----|------------4------------|
|---------------6------------|-----4-------------4-----|
|--------6-------------------|--4---------4------------|
|--4----(4)----(4)----(4)----|--2-(2)----(2)----(2)----|
|--4-------------------------|-------------------------|


   Q         S   S  S.    E  S   S  S   S  S
|-17--------12-----17--|-20--------------------|
|---------------12-----|-----------19--21------|
|----------------------|--------17--------20---|
|----------------------|----18-----------------|
|----------------------|-----------------------|
|----------------------|-----------------------|
|
|  E  s   s  e   e        Q
|-16--------14---------|-11--------------------|
|-17-17--17-----17-----|-13--------------------|
|-----------16---------|-----------------------|
|----18--18-----18-----|-----------------------|
|----------------------|-----------------------|
|----------------------|-----------------------|
|
|  E  E      E      E     E  E      E      E
|-------------------5--|--4--------------------|
|------------5------5--|--4--4-----------------|
|-----2----------------|------------5----------|
|--2--2------2---------|-----6-------------6---|
|--0-(0)----(0)----(0)-|------------6------6---|
|----------------------|--4-(4)----(4)----(4)--|


  Q=76
 4/4
   Q
   |
   /

  Gtr II
                                ~~
   S  S  S   S  S   S  S   S    E  S   S  S   S  S   S
|---------------------19--24-|-23-19--14---------------|
|-----------19-21--22-14--12-|-12--------16---------16-|
|-18-20-21--11-13--14--------|---------------16-14-----|
|-11-13-14-------------------|-------------------------|
|----------------------------|-------------------------|
|----------------------------|-------------------------|
|
| GtrGtr III
|  E     s   s  s   E           E  s   s  s   E
|--------9---9--9------------|----11--11-11------------|
|--------9---9--9------------|----12--12-12------------|
|----------------------------|-------------------------|
|----------------------------|-------------------------|
|----------------------------|-------------------------|
|----------------------------|-------------------------|
|
| Gtr I
|  E     E      E      E        E  E      E      E
|----------------------4-----|-------------------2-----|
|---------------5------5-----|------------4------------|
|---------------6------------|-----4-------------4-----|
|--------6-------------------|--4---------4------------|
|--4----(4)----(4)----(4)----|--2-(2)----(2)----(2)----|
|--4-------------------------|-------------------------|


   Q         S   S  S.    E  S   S  S   S  S
|-17--------12-----17--|-20--------------------|
|---------------12-----|-----------19--21------|
|----------------------|--------17--------20---|
|----------------------|----18-----------------|
|----------------------|-----------------------|
|----------------------|-----------------------|
|
|  E  s   s  e      e     Q
|-16--------14---------|-11--------------------|
|-17-17--17--------17--|-13--------------------|
|-----------16---------|-----------------------|
|----18--18--------18--|-----------------------|
|----------------------|-----------------------|
|----------------------|-----------------------|
|
|  E  E      E      E     E  E      E      E
|-------------------5--|--4--------------------|
|------------5------5--|--4--4-----------------|
|-----2----------------|------------5----------|
|--2--2------2---------|-----6-------------6---|
|--0-(0)----(0)----(0)-|------------6------6---|
|----------------------|--4-(4)----(4)----(4)--|


|-|
|-|
|-|
|-|
|-|
|-|



Duration Legend
---------------
W - whole; H - half; Q - quarter; E - 8th; S - 16th; T - 32nd; X - 64th; a - acciaccatura
+ - note tied to previous; . - note dotted; .. - note double dotted
Uncapitalized letters represent notes that are staccato (1/2 duration)
Irregular groupings are notated above the duration line
Duration letters will always appear directly above the note/fret number it represents the
duration for.  Duration letters with no fret number below them represent rests.  Multi-
bar rests are notated in the form Wxn, where n is the number of bars to rest for.  Low
melody durations appear below the staff

Tablature Legend
----------------
 h   - hammer-on
 p   - pull-off
 b   - bend
 pb  - pre-bend
 r   - bend release (if no number after the r, then release immediately)
 /\  - slide into or out of (from/to "nowhere")
 s   - legato slide
 S   - shift slide
<n> - natural harmonic
[n]  - artificial harmonic
n(n) - tapped harmonic
 ~   - vibrato
 tr  - trill
 T   - tap
 TP  - trem. picking
 PM  - palm muting
\n/  - tremolo bar dip; n = amount to dip
 \n  - tremolo bar down
 n/  - tremolo bar up
/n\  - tremolo bar inverted dip
 =   - hold bend; also acts as connecting device for hammers/pulls
 <> - volume swell (louder/softer)
 x   - on rhythm slash represents muted slash
 o   - on rhythm slash represents single note slash

Misc Legend
-----------
 |  - bar
||  - double bar
||o - repeat start
o|| - repeat end
*|  - double bar (ending)
 :  - bar (freetime)
 $  - Segno
 &  - Coda
Tempo markers - <E/E./Q/Q./H/H.> = BPM(8/16=s8/s16), where s8 = swing 8ths, s16 = swing 16ths


** Generated using Power Tab Editor by Brad Larsen: The Official Power Tab Web Site