#----------------------------------PLEASE NOTE---------------------------------#
#This file is the author's own work and represents their interpretation of the #
#song. You may only use this file for private study, scholarship, or research. #
#------------------------------------------------------------------------------#

HOLLOWED OUT HEART
As recorded by Blood Vacuum
(From the 2004 Album HOPELESS IN C MINOR)


Words and Music by Matthew Calestino
Arranged by M.Calestino


Gtr I (D G C F A D) - 'rhythm '
Gtr II (D G C F A D) - 'lead'
Gtr III (D G C F A D) - 'Untitled'

  Q=106
 4/4
  Gtr I
  PM---------------------------------------------------
  E E E E E E E E   E E E E E E E E   E E E E E E E E
|-----------------|-----------------|-----------------|
|-----------------|-----------------|-----------------|
|-2-------2-------|-2-------2-------|-2-------2-------|
|---0-------0-----|---0-------0-----|---0-------0-----|
|-----2-------2---|-----2-------2---|-----2-------2---|
|-------2-------2-|-------2-------2-|-------0-------0-|
|
| Gtr III
| W                 W                 W
|-----------------|-----------------|-----------------|
|-----------------|-----------------|-----------------|
|-----------------|-----------------|-----------------|
|-----------------|-----------------|-----------------|
|-----------------|-----------------|-----------------|
|-----------------|-----------------|-----------------|
|
| W                 W                 W
|-----------------|-----------------|-----------------|
|-----------------|-----------------|-----------------|
|-----------------|-----------------|-----------------|
|-----------------|-----------------|-----------------|
|-----------------|-----------------|-----------------|
|-----------------|-----------------|-----------------|


 ------------------------------------|
  E E E E E E E E     E E E E  E E E E
|-----------------|--------------------|--|
|-----------------|--------------------|--|
|-1-------1-------|---2--------2-------|--|
|---0-------0-----|-----0--------0-----|--|
|-----2-------2---|-------2--------2---|--|
|-------0-------0-|---------2--------2-|--|
|
| W                   E E E E  E E E E
|-----------------|--10-------10-------|--|
|-----------------|-----7--------7-----|--|
|-----------------|-------7--------7---|--|
|-----------------|---------7--------7-|--|
|-----------------|--------------------|--|
|-----------------|--------------------|--|
|
|                   Gtr II
| W                   E E E E  E E E E
|-----------------|--------------------|--|
|-----------------|-/10-------10-------|--|
|-----------------|-----7--------7-----|--|
|-----------------|-------9--------9---|--|
|-----------------|---------9--------9-|--|
|-----------------|--------------------|--|


                                  PM-------------------------
         |--3--|
   E  E  E  S  E.  E  E  E  E     E   E  E   E   E  E   E E
|-----------------------------|---0-------------------------|
|---------------------------3-|-------0----------0----------|
|-/6---------------2--2--2----|----------1----------1-------|
|-----7-/4p=2p=0------4-------|--------------0----------0---|
|-----------------------------|---------------------------2-|
|-----------------------------|-----------------------------|
|
| Gtr III
|                                 ~~~~~~~        ~~~~
|        |--3--|
|  E  E  E  S  E.  E  E  E  E     E   Q      E   Q      Q
|-14-----------------------14-|-----------------------------|
|----15-15-14-12--15----15----|------12---------15----------|
|--------------------14-------|-----------------------------|
|-----------------------------|-/12-(12)---/16-(16)---/18---|
|-----------------------------|-----------------------------|
|-----------------------------|-----------------------------|
|
| Gtr II
|                                 ~~~~~~~        ~~~~~~~~~
|        |--3--|
|  E  E  E  S  E.  E  E  E  E     E   Q      E   Q      Q
|-----------------------------|-----------------------------|
|-/7----/3p=2p=0------------3-|-------9---------12----------|
|-----7------------2-----2----|-----------------------------|
|---------------------4-------|--/9--(9)---/12-(12)---/14---|
|-----------------------------|-----------------------------|
|-----------------------------|-----------------------------|


 -------------------------------|
    E  E  E  E  E     E    E    E
|---------------------------------|--|
|---------------------------------|--|
|---1-----------------------------|--|
|------0--------0-----------------|--|
|---------2-----------2---------2-|--|
|------------0-------------0------|--|
|
|                             ~~
|   E  E  E  E  S  S  S  E    E
|--------------22p19---------19---|--|
|-----------19----------21--------|--|
|-----16-19----------19-----------|--|
|-/18-----------------------------|--|
|---------------------------------|--|
|---------------------------------|--|
|
|                        ~~
|   E  E  E  E  S  S  S  E    E
|--------------19p16---------16---|--|
|-----------15----------17--------|--|
|-----13-16----------19-----------|--|
|-/14-----------------------------|--|
|---------------------------------|--|
|---------------------------------|--|


   PM-----------------------------------------
   E    E  E  E    E E E E   E E E E E E E E
|--------------------------|-----------------|
|--------------------------|-----------------|
|--2---------------2-------|-2-------2-------|
|-------0------------0-----|---0-------0-----|
|----------2-----------2---|-----2-------2---|
|-------------2----------2-|-------2-------2-|
|
| Gtr III
|  Q       E  H              W
|---------19---------------|-----------------|
|-20b22------20b22---------|-----------------|
|--------------------------|-----------------|
|--------------------------|-----------------|
|--------------------------|-----------------|
|--------------------------|-----------------|
|
|             ~~~~~
|  Q       E  H              W
|---------16---------------|-----------------|
|-17b19------17b19---------|-----------------|
|--------------------------|-----------------|
|--------------------------|-----------------|
|--------------------------|-----------------|
|--------------------------|-----------------|


 ------------------------------------------------------|
  E E E E E E E E   E E E E E E E E     E E E E  E E E E
|-----------------|-----------------|--------------------|
|-----------------|-----------------|--------------------|
|-2-------2-------|-1-------1-------|---2--------2-------|
|---0-------0-----|---0-------0-----|-----0--------0-----|
|-----2-------2---|-----2-------2---|-------2--------2---|
|-------0-------0-|-------0-------0-|---------2--------2-|
|
| W                 W                   E E E E  E E E E
|-----------------|-----------------|--10-------10-------|
|-----------------|-----------------|-----7--------7-----|
|-----------------|-----------------|-------7--------7---|
|-----------------|-----------------|---------7--------7-|
|-----------------|-----------------|--------------------|
|-----------------|-----------------|--------------------|
|
| W                 W                   E E E E  E E E E
|-----------------|-----------------|--------------------|
|-----------------|-----------------|-/10-------10-------|
|-----------------|-----------------|-----7--------7-----|
|-----------------|-----------------|-------9--------9---|
|-----------------|-----------------|---------9--------9-|
|-----------------|-----------------|--------------------|


                                  PM-------------------------
         |--3--|
   E  E  E  S  E.  E  E  E  E     E   E  E   E   E  E   E E
|---------------------------2-|---0-------------------------|
|------------------3-----3----|-------0----------0----------|
|-/6------------------2-------|----------1----------1-------|
|-----7-/4p=2p=0--------------|--------------0----------0---|
|-----------------------------|---------------------------2-|
|-----------------------------|-----------------------------|
|
| Gtr III
|                                 ~~~~~~~        ~~~~
|        |--3--|
|  E  E  E  S  E.  E  E  E  E     E   Q      E   Q      Q
|-14-----------------------14-|-----------------------------|
|----15-15-14-12--15----15----|------12---------15----------|
|--------------------14-------|-----------------------------|
|-----------------------------|-/12-(12)---/16-(16)---/18---|
|-----------------------------|-----------------------------|
|-----------------------------|-----------------------------|
|
| Gtr II
|                                 ~~~~~~~        ~~~~~~~~~
|        |--3--|
|  E  E  E  S  E.  E  E  E  E     E   Q      E   Q      Q
|-----------------------------|-----------------------------|
|-/7----/3p=2p=0------------3-|-------9---------12----------|
|-----7------------2-----2----|-----------------------------|
|---------------------4-------|--/9--(9)---/12-(12)---/14---|
|-----------------------------|-----------------------------|
|-----------------------------|-----------------------------|


 --------------------------|
    E  E  E  E  E     E  E  E
|-----------------------------|-|
|-----------------------------|-|
|---1-------------------------|-|
|------0--------0-------------|-|
|---------2-----------2-----2-|-|
|------------0-----------0----|-|
|
|                           ~~
|   E  E  E  E  S  S  S  E  E
|--------------22p19-------19-|-|
|-----------19----------21----|-|
|-----16-19----------19-------|-|
|-/18-------------------------|-|
|-----------------------------|-|
|-----------------------------|-|
|
|                        ~~
|   E  E  E  E  S  S  S  E  E
|--------------19p16-------16-|-|
|-----------15----------17----|-|
|-----13-16----------19-------|-|
|-/14-------------------------|-|
|-----------------------------|-|
|-----------------------------|-|


  Gtr II
    H           H             H           H
|-------------------------|-<12>---------<5>--------|
|-<12>---------<7>--------|-<12>-------(<12>)-------|
|-<12>-------(<12>)-------|-------------------------|
|-<12>-------(<12>)-------|-------------------------|
|-------------------------|-------------------------|
|-------------------------|-------------------------|
|
| Gtr I
|   E  E E E    E   E E E     E  E E E    E   E E E
|-------------------------|-------------------0-----|
|---------------0---------|---------------3-----3---|
|----------0--------0-----|----------4------------4-|
|--------4------------4---|--------5----------------|
|------5----------------5-|------2------------------|
|---3---------------------|---0---------------------|


   H            Q         Q     E T T T E E E E E E
|-----------------------<12>--|----------------------|
|--------------<7>------(<7>)-|----------------------|
|-<5>---------(<5>)-----(<5>)-|-4-2h4p2-0------------|
|-<5>---------(<5>)-----------|-----------4-2-0---5--|
|-----------------------------|-----------------3----|
|-----------------------------|----------------------|
|
|  E  S S E E   E   E E   E     E T T T E E E E E E
|---------------2-------------|-3-2h3p2-0------------|
|-----------3-------3---------|-----------3-1p0---1--|
|---------0-----------0-------|-----------------2----|
|-----0h2-----------------0---|----------------------|
|--3--------------------------|----------------------|
|-----------------------------|----------------------|


    H           H             H           H
|-------------------------|-<12>---------<5>--------|
|-<12>---------<7>--------|-<12>-------(<12>)-------|
|-<12>-------(<12>)-------|-------------------------|
|-<12>-------(<12>)-------|-------------------------|
|-------------------------|-------------------------|
|-------------------------|-------------------------|
|
|   E  E E E    E   E E E     E  E E E    E   E E E
|-------------------------|-------------------0-----|
|---------------0---------|---------------3-----3---|
|----------0--------0-----|----------4------------4-|
|--------4------------4---|--------5----------------|
|------5----------------5-|------2------------------|
|---3---------------------|---0---------------------|


   H            Q       Q       E T T T E E E E E E
|---------------------<12>----|----------------------|
|--------------<7>----(<7>)---|----------------------|
|-<5>---------(<5>)---(<5>)---|-4-2h4p2-0------------|
|-<5>---------(<5>)-----------|-----------4-2-0---5--|
|-----------------------------|-----------------3----|
|-----------------------------|----------------------|
|
|  E  S S E E   E   E   E   E   E T T T E E E E E E
|---------------2-------------|-3-2h3p2-0------------|
|-----------3-------3---------|-----------3-1p0---1--|
|---------0-------------0-----|-----------------2----|
|-----0h2-------------------0-|----------------------|
|--3--------------------------|----------------------|
|-----------------------------|----------------------|


  Gtr I
  PM---------------------------------------------------
  E E E E E E E E   E E E E E E E E   E E E E E E E E
|-----------------|-----------------|-----------------|
|-----------------|-----------------|-----------------|
|-2-------2-------|-2-------2-------|-2-------2-------|
|---0-------0-----|---0-------0-----|---0-------0-----|
|-----2-------2---|-----2-------2---|-----2-------2---|
|-------2-------2-|-------2-------2-|-------0-------0-|
|
| Gtr III
| W                 W                 W
|-----------------|-----------------|-----------------|
|-----------------|-----------------|-----------------|
|-----------------|-----------------|-----------------|
|-----------------|-----------------|-----------------|
|-----------------|-----------------|-----------------|
|-----------------|-----------------|-----------------|
|
|-----------------|-----------------|-----------------|
|-----------------|-----------------|-----------------|
|-----------------|-----------------|-----------------|
|-----------------|-----------------|-----------------|
|-----------------|-----------------|-----------------|
|-----------------|-----------------|-----------------|


 ------------------------------------|
  E E E E E E E E     E E E E  E E E E
|-----------------|--------------------|
|-----------------|--------------------|
|-1-------1-------|---2--------2-------|
|---0-------0-----|-----0--------0-----|
|-----2-------2---|-------2--------2---|
|-------0-------0-|---------2--------2-|
|
|   W                 E E E E  E E E E
|-----------------|--10-------10-------|
|-----------------|-----7--------7-----|
|-----------------|-------7--------7---|
|-----------------|---------7--------7-|
|-----------------|--------------------|
|-----------------|--------------------|
|
|     W               E E E E  E E E E
|-----------------|--------------------|
|-----------------|-/10-------10-------|
|-----------------|-----7--------7-----|
|-----------------|-------9--------9---|
|-----------------|---------9--------9-|
|-----------------|--------------------|


                                  PM-------------------------
         |--3--|
   E  E  E  S  E.  E  E  E  E     E   E  E   E   E  E   E E
|---------------------------2-|---0-------------------------|
|------------------3-----3----|-------0----------0----------|
|-/6------------------2-------|----------1----------1-------|
|-----7-/4p=2p=0--------------|--------------0----------0---|
|-----------------------------|---------------------------2-|
|-----------------------------|-----------------------------|
|
| Gtr III
|                                 ~~~~~~~        ~~~~
|        |--3--|
|  E  E  E  S  E.  E  E  E  E     E   Q      E   Q      Q
|-14-----------------------14-|-----------------------------|
|----15-15-14-12--15----15----|------12---------15----------|
|--------------------14-------|-----------------------------|
|-----------------------------|-/12-(12)---/16-(16)---/18---|
|-----------------------------|-----------------------------|
|-----------------------------|-----------------------------|
|
| Gtr II
|                                 ~~~~~~~        ~~~~~~~~~
|        |--3--|
|  E  E  E  S  E.  E  E  E  E     E   Q      E   Q      Q
|-----------------------------|-----------------------------|
|-/7----/3p=2p=0------------3-|-------9---------12----------|
|-----7------------2-----2----|-----------------------------|
|---------------------4-------|--/9--(9)---/12-(12)---/14---|
|-----------------------------|-----------------------------|
|-----------------------------|-----------------------------|


 --------------------------|
    E  E  E  E  E     E  E  E
|-----------------------------|-|
|-----------------------------|-|
|---1-------------------------|-|
|------0--------0-------------|-|
|---------2-----------2-----2-|-|
|------------0-----------0----|-|
|
|                           ~~
|   E  E  E  E  S  S  S  E  E
|--------------22p19-------19-|-|
|-----------19----------21----|-|
|-----16-19----------19-------|-|
|-/18-------------------------|-|
|-----------------------------|-|
|-----------------------------|-|
|
|                        ~~
|   E  E  E  E  S  S  S  E  E
|--------------19p16-------16-|-|
|-----------15----------17----|-|
|-----13-16----------19-------|-|
|-/14-------------------------|-|
|-----------------------------|-|
|-----------------------------|-|


   PM-----------------------------------------
   E    E  E  E    E E E E   E E E E E E E E
|--------------------------|-----------------|
|--------------------------|-----------------|
|--2---------------2-------|-2-------2-------|
|-------0------------0-----|---0-------0-----|
|----------2-----------2---|-----2-------2---|
|-------------2----------2-|-------2-------2-|
|
| Gtr III
|  Q       E  H              W
|---------19---------------|-----------------|
|-20b22------20b22---------|-----------------|
|--------------------------|-----------------|
|--------------------------|-----------------|
|--------------------------|-----------------|
|--------------------------|-----------------|
|
|             ~~~~~
|  Q       E  H              W
|---------16---------------|-----------------|
|-17b19------17b19---------|-----------------|
|--------------------------|-----------------|
|--------------------------|-----------------|
|--------------------------|-----------------|
|--------------------------|-----------------|


 ------------------------------------------------------|
  E E E E E E E E   E E E E E E E E     E E E E  E E E E
|-----------------|-----------------|--------------------|
|-----------------|-----------------|--------------------|
|-2-------2-------|-1-------1-------|---2--------2-------|
|---0-------0-----|---0-------0-----|-----0--------0-----|
|-----2-------2---|-----2-------2---|-------2--------2---|
|-------0-------0-|-------0-------0-|---------2--------2-|
|
| W                 W                   E E E E  E E E E
|-----------------|-----------------|--10-------10-------|
|-----------------|-----------------|-----7--------7-----|
|-----------------|-----------------|-------7--------7---|
|-----------------|-----------------|---------7--------7-|
|-----------------|-----------------|--------------------|
|-----------------|-----------------|--------------------|
|
| W                 W                   E E E E  E E E E
|-----------------|-----------------|--------------------|
|-----------------|-----------------|-/10-------10-------|
|-----------------|-----------------|-----7--------7-----|
|-----------------|-----------------|-------9--------9---|
|-----------------|-----------------|---------9--------9-|
|-----------------|-----------------|--------------------|


                                  PM-------------------------
         |--3--|
   E  E  E  S  E.  E  E  E  E     E   E  E   E   E  E   E E
|---------------------------2-|---0-------------------------|
|------------------3-----3----|-------0----------0----------|
|-/6------------------2-------|----------1----------1-------|
|-----7-/4p=2p=0--------------|--------------0----------0---|
|-----------------------------|---------------------------2-|
|-----------------------------|-----------------------------|
|
| Gtr III
|                                 ~~~~~~~        ~~~~
|        |--3--|
|  E  E  E  S  E.  E  E  E  E     E   Q      E   Q      Q
|-14-----------------------14-|-----------------------------|
|----15-15-14-12--15----15----|------12---------15----------|
|--------------------14-------|-----------------------------|
|-----------------------------|-/12-(12)---/16-(16)---/18---|
|-----------------------------|-----------------------------|
|-----------------------------|-----------------------------|
|
| Gtr II
|                                 ~~~~~~~        ~~~~~~~~~
|        |--3--|
|  E  E  E  S  E.  E  E  E  E     E   Q      E   Q      Q
|-----------------------------|-----------------------------|
|-/7----/3p=2p=0------------3-|-------9---------12----------|
|-----7------------2-----2----|-----------------------------|
|---------------------4-------|--/9--(9)---/12-(12)---/14---|
|-----------------------------|-----------------------------|
|-----------------------------|-----------------------------|


 --------------------------|
    E  E  E  E  E     E  E  E
|-----------------------------|-|
|-----------------------------|-|
|---1-------------------------|-|
|------0--------0-------------|-|
|---------2-----------2-----2-|-|
|------------0-----------0----|-|
|
|                           ~~
|   E  E  E  E  S  S  S  E  E
|--------------22p19-------19-|-|
|-----------19----------21----|-|
|-----16-19----------19-------|-|
|-/18-------------------------|-|
|-----------------------------|-|
|-----------------------------|-|
|
|                        ~~
|   E  E  E  E  S  S  S  E  E
|--------------19p16-------16-|-|
|-----------15----------17----|-|
|-----13-16----------19-------|-|
|-/14-------------------------|-|
|-----------------------------|-|
|-----------------------------|-|


                                     ~~                                     ~~
                   |--3--|  |--3--|                       |--3--|  |--3--|
   Q.        E  E  S  S  S  S  S  S  E    Q.        E  E  S  S  S  S  S  S  E
|-----------19-17-15h17p15-14h15p14----|-20b22-----20-19-17h19p17-15h17p15----|
|-17b20-----------------------------15-|-----------------------------------19-|
|--------------------------------------|--------------------------------------|
|--------------------------------------|--------------------------------------|
|--------------------------------------|--------------------------------------|
|--------------------------------------|--------------------------------------|
|
|                                                                  ~~~
|  E    E E  E  E  E        E        E    E    E E  E  E  E        E.
|--------------------------------------|--------------------------------------|
|--------------------------------------|--------------------------------------|
|--------------------------------------|--------------------------------------|
|--4h===5----5--4----------------------|--7---------9--7-----------4----------|
|--5---------5--5-----------5----------|-/5---------5--5-----------5----------|
|--3------3--3--3--3--------3--------0-|--0----7-0--------0-------------------|


                                                 ~~
       |--3--|                    |-----3-----|
    E  S  S  S  S  S  S  S  S  S  S  S        S  Q
|-/19-15h19p15----19-17-15-17-15----------------------|--|
|--------------17----------------19-17-------15-------|--|
|-----------------------------------------------17----|--|
|-----------------------------------------------------|--|
|-----------------------------------------------------|--|
|-----------------------------------------------------|--|
|
|   E  E        E  E     E     E        E           E
|-----------------------------------------------------|--|
|-----------------------------------------------------|--|
|------------------9-----7----------------------------|--|
|-----------------10----10----------------------------|--|
|-/10--9-------10-10----10-------------10b12r======10-|--|
|--/8--8--------8--------------8----------------------|--|


    T   T   T   T   T   T   T   T   T   T   T   T   T   T   T   T   T   T  S  S  S  S  E    S
|---------^14h^17p^14-------------^17h^20p^17-----------------^17h^22p^17-------------19---19b20r=|
|-----^15-------------^15-----^19-------------^19---------^19-------------19----------------------|
|-^14---------------------^19-------------------------^19--------------------19-------------------|
|-------------------------------------------------^19---------------------------19----------------|
|----------------------------------------------------------------------------------15-------------|
|-------------------------------------------------------------------------------------------------|
|
|   E               E               E               E               E         E     E    E
|----------------------------------------------------------------------------------------7--------|
|---------------------------------------------------7-------------------------------7-------------|
|-----------------------------------7-----------------------------------------5-------------------|
|------------------10-----------------------------------------------7-----------------------------|
|---9---------------------------------------------------------------------------------------------|
|-------------------------------------------------------------------------------------------------|


   ~~~
   Q                       W
|-19---------------|-----------------|
|------------------|-----------------|
|------------------|-----------------|
|------------------|-----------------|
|------------------|-----------------|
|------------------|-----------------|
|
| Gtr I
|                                ~~
|  E E E E E E E E   E E E E E E E.
|------------------|-----------------|
|------------------|-----------------|
|------------------|-----------------|
|--4h5---5-4-------|-7-----9-7---4---|
|--5-----5-5---5---|-5-----5-5---5---|
|--3---3-3-3-3-3-0-|-0-7-0-----0-----|


                                                              ~~
              W               E  E E E S  S  S S  S  S  S  S  Q
|--------------------------|-------------------------------------|
|--------------------------|---------------------------10--------|
|--------------------------|---------7---------7--9-11----11-12--|
|--------------------------|-/7----7---7--9h10-------------------|
|--------------------------|-----9-------------------------------|
|--------------------------|-------------------------------------|
|
|                                              PM---|         ~~
|  E E  E  E  E E  E     E    E  E E E S  S  S S  S  S  S  S  E
|--------------------------|-------------------------------------|
|--------------------------|---------7---------------------------|
|----------9--7------------|-------7--------------------9--7-----|
|---------10-10------------|----10-------------9-10-12--------9--|
|-10-9-10-10-10---10b12r10-|-/9--------9-10h12-------------------|
|-/8-8--8-------8----------|-------------------------------------|


  Gtr I
                                   PM--|
   Q  E S  S   Q   E  E    Q  E Q  E E E
|-!0---------------------|---------------|
|-!0---------------------|----3----------|
|-!0---------------2--4--|-5--2-4--2-4-5-|
|-!2----2--4---5---2-(2)-|-2--2-2--4-4-4-|
|-!2----2-(2)-(2)--------|---------------|
|-!0--0------------------|---------------|


  Q  E S  S   Q   E  E    E E E E E E E
|-----------------------|----------------|
|-----------------------|----------------|
|-----------------2--4--|----------------|
|-2----2--4---5---2-(2)-|-4-----5-----7--|
|-2----2-(2)-(2)--------|-5-----5-----5--|
|-0--0------------------|-5-5-5-5-5-5-5--|


                                                                                               ~~~~~~~~~~
   E     S   E       S   E          E.    E       S  E     E     S  S  T  T  T  T  T  T  T  T  Q    Q
|-------12-(12)-----12-(12)-------(12)---12------12h15--|-15b17-15-14-12h14p12-----------------------------|
|-15b17-----15b17-------15b17------15b17-15b17----------|----------------------15-13-12-13-12------12------|
|-------------------------------------------------------|-------------------------------------14---14b16---|
|-------------------------------------------------------|--------------------------------------------------|
|-------------------------------------------------------|--------------------------------------------------|
|-------------------------------------------------------|--------------------------------------------------|
|
| Gtr I
|                                                                                                PM------|
|  Q              E      S     S    Q          E     E     Q           E           Q             E  E    E
|-!0----------------------------------------------------|--------------------------------------------------|
|-!0----------------------------------------------------|--------------3-----------------------------------|
|-!0-------------------------------------------2-----4--|--5-----------2-----------4-------------2--4----5-|
|-!2---------------------2-----4----5----------2----(2)-|--2-----------2-----------2-------------4--4----4-|
|-!2---------------------2----(2)--(2)------------------|--------------------------------------------------|
|-!0--------------0-------------------------------------|--------------------------------------------------|


                                                                 ~~
                                                                          |-3--| |-3--| |--3--| |--3--|  |--3--|  |--3--|
   T   T  T  T  T  T  T  T  T  T  T  S   S     S      S S S  S   E.       S S  S S S  S S  S  S S  S  S  S  S  S  S  S  S  S S.   S  S
|-----------------^7h^8p^7---------------------7h====12-7---------------|-----------------------------------------------------------------|
|--------------^8----------!8------------8----------------8-10----------|-----------------------------------------------------------------|
|-----------^9----------------!9----/9---------------------------9------|-7-9h11-7-9h11-9-11h12-9-11h12-11-12-14p11-12-14h16----/16h17----|
|--------^9----------------------!9-------------------------------------|-----------------------------------------------------------------|
|-^7-^10----------------------------------------------------------------|-----------------------------------------------------------------|
|-----------------------------------------------------------------------|-----------------------------------------------------------------|
|
|  Q                        E          S    S     Q            E     E    E      E      E       E        E        E        E
|-----------------------------------------------------------------------|-----------------------------------------------------------------|
|-----------------------------------------------------------------------|-----------------------------------------------------------------|
|--------------------------------------------------------------2-----4--|-----------------------------------------------------------------|
|--2-----------------------------------2----4-----5------------2----(2)-|-4---------------------5--------------------------7--------------|
|--2-----------------------------------2---(2)---(2)--------------------|-5---------------------5--------------------------5--------------|
|--0------------------------0-------------------------------------------|-5------5------5-------5--------5--------5--------5--------------|


   ~~
   Q   E  E      S   S  S  S  S  S  S   S     S  S  S  S  S  S  S  S  S  S  S  S  S  S  S  S
|-----------------------------------------|--------------------------------------------------|
|-----------------------------------------|-----------------------------------------15-17-19-|
|-16------------16------------------------|-----------------------14-------14-16-17----------|
|-----17-14---------17-16-14-19-17-16--14-|-----14-16-17-14-16-17----16-17-------------------|
|-----------------------------------------|-/17----------------------------------------------|
|-----------------------------------------|--------------------------------------------------|
|
|                                                                           PM---------|
|  Q   E  S  S   Q            E     E         Q           E     Q           E     E     E
|-!0--------------------------------------|--------------------------------------------------|
|-!0--------------------------------------|---------------3----------------------------------|
|-!0--------------------------2-----4-----|---5-----------2-----4-----------2-----4-----5----|
|-!2------2--4---5------------2----(2)----|---2-----------2-----2-----------4-----4-----4----|
|-!2------2-(2)-(2)-----------------------|--------------------------------------------------|
|-!0---0----------------------------------|--------------------------------------------------|


                                                        |--3--|                    |--3--|
   S  S  S  S  S  S  S  S   S   S  S  S  S  S  S   S    S  S  S  S  S  S  S  S  S  S  S  S  S  S  S  S  S  S
|-19p15-------15-------------------------------------|-------------------------------------------15-19p15-------|
|-------17-------17--------17------------------------|-------------------15-17-19----------15-17----------17----|
|----------16-------16---------16-------16-----------|----------14-16-17----------14-16h17----------------------|
|----------------------17---------17-14----17-16--14-|-14-16h17-------------------------------------------------|
|----------------------------------------------------|----------------------------------------------------------|
|----------------------------------------------------|----------------------------------------------------------|
|
|  Q           E     S  S   Q            E     E        E        E     E     E     E        E     E
|----------------------------------------------------|----------------------------------------------------------|
|----------------------------------------------------|----------------------------------------------------------|
|----------------------------------------2-----4-----|----------------------------------------------------------|
|--2-----------------2--4---5------------2----(2)----|--4--------------------5--------------------7-------------|
|--2-----------------2-(2)-(2)-----------------------|--5--------------------5--------------------5-------------|
|--0-----------0-------------------------------------|--5--------5-----5-----5-----5--------5-----5-------------|


  Gtr II
                                     ~~~                                      ~~
                   |--3--|  |--3--|                         |--3--|  |--3--|
   Q.        E  E  S  S  S  S  S  S  E      Q.        E  E  S  S  S  S  S  S  E
|-----------19-17-15h17p15-14h15p14------|-20b22-----20-19-17h19p17-15h17p15----|
|-17b20-----------------------------15---|-----------------------------------19-|
|----------------------------------------|--------------------------------------|
|----------------------------------------|--------------------------------------|
|----------------------------------------|--------------------------------------|
|----------------------------------------|--------------------------------------|
|
| Gtr I
|  E    E E  E  E  E        E        S S    E    E E  E  E  E        E        E
|----------------------------------------|--------------------------------------|
|--3---------0---------------------------|--3---------3--3-----------3----------|
|--0---------0--2-----------0------------|--2---------2--2-----------2----------|
|--0---------0--0-----------0------------|--0---------0--0-----------0----------|
|--2----2-2--2--2--2--------2------------|--------------------------------------|
|------------------------------------0h2-|--2----2-2--2--2--2--------2--------2-|


                                            ~~
       |--3---|                    |--3--|
    E  S   S  S  S  S  S  S  S  S  S  S  S  Q
|-/19-15h=19p15----19-17-15-17-15---------------|--|
|---------------17----------------19-17-15------|--|
|------------------------------------------17---|--|
|-----------------------------------------------|--|
|-----------------------------------------------|--|
|-----------------------------------------------|--|
|
|   E  E         E     E     E     E        E E
|-----------------------------------------------|--|
|-----------------------------------------------|--|
|----------------------------5--------------5---|--|
|---5--4---------5-----------5--------------5---|--|
|---3-(3)--------3----/7-----------7----------7-|--|
|-----------------------------------------------|--|


     T   T   T   T   T   T   T   T   T   T   T   T   T   T   T   T   T   T  S  S  S  S   E    +s
|----------^14h^17p^14-------------^17h^20p^17-----------------^17h^22p^17--------------19---(19)b20r=|
|------^15-------------^15-----^19-------------^19---------^19-------------19-------------------------|
|-^/14---------------------^19-------------------------^19--------------------19----------------------|
|--------------------------------------------------^19---------------------------19-------------------|
|-----------------------------------------------------------------------------------15----------------|
|-----------------------------------------------------------------------------------------------------|
|
|    E               E               E               E               E         S  S  S   S E
|----5------------------------------------------------------------------------------------------------|
|----5---------------------------------------------------------------3--------------------------------|
|----5---------------------------------------------------------------5---------------5---2-2----------|
|--------------------7-----------------------------------------------4---------0-/7-(7)--4-0----------|
|------------------------------------7---------------0------------------------------------------------|
|-----------------------------------------------------------------------------------------------------|


   +H
|-(19)-----------------|-----------------|
|----------------------|-----------------|
|----------------------|-----------------|
|----------------------|-----------------|
|----------------------|-----------------|
|----------------------|-----------------|
|
| Gtr I
|   E  E E E E E E S S   E E E E E E E E
|----------------------|-----------------|
|---3------0-----------|-3-----3-3---3---|
|---0------0-2---0-----|-2-----2-2---2---|
|---0------0-0---0-----|-0-----0-0---0---|
|---2--2-2-2-2-2-2-----|-----------------|
|------------------0h2-|-2-2-2-2-2-2-2-2-|


|--------------------|-------------------------|
|--------------------|-------------------------|
|--------------------|-------------------------|
|--------------------|-------------------------|
|--------------------|-------------------------|
|--------------------|-------------------------|
|
| E  E  E  E E E E E   E E E E E S  S  S  S E
|--------------------|-5-----------------------|
|--------------------|-5-------3---------------|
|------------5---5---|-5-------5-------5--2-2--|
|-5--4--5----5---5---|---7-----4-0-/7-(7)-4-0--|
|-3-(3)-3-/7---7---7-|-----7-0-----------------|
|--------------------|-------------------------|


  Gtr I
  E E E E E E E S S   E E E E E E E E
|-------------------|-----------------|
|-3-----0-----------|-3-----3-3---3---|
|-0-----0-2---0-----|-2-----2-2---2---|
|-0-----0-0---0-----|-0-----0-0---0---|
|-2-2-2-2-2-2-2-----|-----------------|
|---------------0h2-|-2-2-2-2-2-2-2-2-|


  E  E  E  E E E E E   E E E E E S  S  S  S E
|--------------------|-5-----------------------|
|--------------------|-5-------3---------------|
|------------5---5---|-5-------5-------5--2-2--|
|-5--4--5----5---5---|---7-----4-0-/7-(7)-4-0--|
|-3-(3)-3-/7---7---7-|-----7-0-----------------|
|--------------------|-------------------------|


  Gtr II
                                       ~~
  E  E  E  E E E  E       E E E E E E  E
|-----------------------|------------------|
|-----------------------|-7-----8-7--------|
|-7h=9--5--9-7----------|-7-----7-7----7---|
|-5-(5)-5-10-9-9--9-----|---9---0-0-0-/7---|
|----------------10-----|-----9------------|
|-----------------------|------------------|
|
| Gtr I
| E  E  E  E E E  E S S   E E E E E E  E E
|-----------------------|------------------|
|-----------------------|-3-----3-3----3---|
|-4h=5-----5-4----------|-2-----2-2----2---|
|-5-(5)----5-5----5-----|-0-----0-0----0---|
|-3-(3)-3--3-3-3--3-----|------------------|
|-------------------0h2-|-2-2-2-2-2-2--2-2-|


                PM-----------------------|
   E E E  E E E E  E    E  E  E E E  E E E
|--------------------|----------------------|
|-10------9-9--------|----------------------|
|--9------9-9--------|--9--9-10-7-7--9-5-7--|
|--9-9-7-/9-9-9-7--9-|-10-10-12-9-9-10-7-9--|
|---------------9-10-|----------------------|
|--------------------|----------------------|
|
|               PM-----------------------|
|  E E E  E E E E  E    E  E  E E E  E E E
|--------------------|----------------------|
|--------------------|--------3-------------|
|--2------1-1---2--4-|--5--5--2-4-4--5-2-4--|
|--2------2-2---0--2-|--2--2--2-2-2--2-2-2--|
|--2------2-2-2------|----------------------|
|----0-0-------------|----------------------|


  Gtr II
                                       ~~
  E  E  E  E E E  E       E E E E E E  E
|-----------------------|------------------|
|-----------------------|-7-----8-7--------|
|-7h=9--5--9-7----------|-7-----7-7----7---|
|-5-(5)-5-10-9-9--9-----|---9---0-0-0-/7---|
|----------------10-----|-----9------------|
|-----------------------|------------------|
|
| Gtr I
| E  E  E  E E E  E S S   E E E E E E  E E
|-----------------------|------------------|
|-----------------------|-3-----3-3----3---|
|-4h=5-----5-4----------|-2-----2-2----2---|
|-5-(5)----5-5----5-----|-0-----0-0----0---|
|-3-(3)-3--3-3-3--3-----|------------------|
|-------------------0h2-|-2-2-2-2-2-2--2-2-|


                PM-----------------------|
   E E E  E E E E  E    E  E  E E E  E E E
|--------------------|----------------------|
|-10------9-9--------|----------------------|
|--9------9-9--------|--9--9-10-7-7--9-5-7--|
|--9-9-7-/9-9-9-7--9-|-10-10-12-9-9-10-7-9--|
|---------------9-10-|----------------------|
|--------------------|----------------------|
|
|               PM-----------------------|
|  E E E  E E E E  E    E  E  E E E  E E E
|--------------------|----------------------|
|--------------------|--------3-------------|
|--2------1-1---2--4-|--5--5--2-4-4--5-2-4--|
|--2------2-2---0--2-|--2--2--2-2-2--2-2-2--|
|--2------2-2-2------|----------------------|
|----0-0-------------|----------------------|


  W                 W                 W
|-----------------|-----------------|-----------------|
|-----------------|-----------------|-----------------|
|-----------------|-----------------|-----------------|
|-----------------|-----------------|-----------------|
|-----------------|-----------------|-----------------|
|-----------------|-----------------|-----------------|
|
| PM---------------------------------------------------
| E E E E E E E E   E E E E E E E E   E E E E E E E E
|-----------------|-----------------|-----------------|
|-----------------|-----------------|-----------------|
|-2-------2-------|-2-------2-------|-2-------2-------|
|---0-------0-----|---0-------0-----|---0-------0-----|
|-----2-------2---|-----2-------2---|-----2-------2---|
|-------2-------2-|-------2-------2-|-------0-------0-|


  W                   E E E E  E E E E
|-----------------|--------------------|
|-----------------|-/10-------10-------|
|-----------------|-----7--------7-----|
|-----------------|-------9--------9---|
|-----------------|---------9--------9-|
|-----------------|--------------------|
|
|------------------------------------|
| E E E E E E E E     E E E E  E E E E
|-----------------|--------------------|
|-----------------|--------------------|
|-1-------1-------|---2--------2-------|
|---0-------0-----|-----0--------0-----|
|-----2-------2---|-------2--------2---|
|-------0-------0-|---------2--------2-|


                           H.=H
        |-3-|
   E E  E S E. E E E E
|------------------------|-----------------|--------------------|
|-/7---/3p2p0--------3---|-----------------|--------------------|
|----7---------2---2-----|-----------------|--------------------|
|----------------4-------|-----------------|--------------------|
|------------------------|-----------------|--------------------|
|------------------------|-----------------|--------------------|
|
|       |-3-|
|  E E  E S E. E E E E E   E E E E E E E E   E E E E E E E W
|--------------------2-0-|-----------------|--------------------|
|--------------3---3-----|-0-----0---------|--------------------|
|-/6-------------2-------|---1-----1-----1-|---------------1----|
|----7-/4p2p0------------|-----0-----0-----|-0-----0-------0----|
|------------------------|-------------2---|---2-----2---2-2----|
|------------------------|-----------------|-----0-----0---0----|



Duration Legend
---------------
W - whole; H - half; Q - quarter; E - 8th; S - 16th; T - 32nd; X - 64th; a - acciaccatura
+ - note tied to previous; . - note dotted; .. - note double dotted
Uncapitalized letters represent notes that are staccato (1/2 duration)
Irregular groupings are notated above the duration line
Duration letters will always appear directly above the note/fret number it represents the
duration for.  Duration letters with no fret number below them represent rests.  Multi-
bar rests are notated in the form Wxn, where n is the number of bars to rest for.  Low
melody durations appear below the staff

Tablature Legend
----------------
 h   - hammer-on
 p   - pull-off
 b   - bend
 pb  - pre-bend
 r   - bend release (if no number after the r, then release immediately)
 /\  - slide into or out of (from/to "nowhere")
 s   - legato slide
 S   - shift slide
<n> - natural harmonic
[n]  - artificial harmonic
n(n) - tapped harmonic
 ~   - vibrato
 tr  - trill
 T   - tap
 TP  - trem. picking
 PM  - palm muting
\n/  - tremolo bar dip; n = amount to dip
 \n  - tremolo bar down
 n/  - tremolo bar up
/n\  - tremolo bar inverted dip
 =   - hold bend; also acts as connecting device for hammers/pulls
 <> - volume swell (louder/softer)
 x   - on rhythm slash represents muted slash
 o   - on rhythm slash represents single note slash

Misc Legend
-----------
 |  - bar
||  - double bar
||o - repeat start
o|| - repeat end
*|  - double bar (ending)
 :  - bar (freetime)
 $  - Segno
 &  - Coda
Tempo markers - <E/E./Q/Q./H/H.> = BPM(8/16=s8/s16), where s8 = swing 8ths, s16 = swing 16ths


** Generated using Power Tab Editor by Brad Larsen: The Official Power Tab Web Site