#----------------------------------PLEASE NOTE---------------------------------#
#This file is the author's own work and represents their interpretation of the #
#song. You may only use this file for private study, scholarship, or research. #
#------------------------------------------------------------------------------#

ENSORCELLED BY THE WAVES OF TIME
As recorded by Blood Vacuum
(From the 2005 Album TEMPORAL STORM)

Transcribed by MC

Words and Music by M.Calestino
Arranged by MC


Gtr I (D G C F A D) - 'strings'
Gtr II (D G C F A D) - 'Rhythm 2'
Gtr III (D G C F A D) - 'organ'
Gtr IV (D G C F A D) - 'harpsichord'
Gtr V (D G C F A D) - 'contrabass'
Gtr VI (D G C F A D) - 'trumpet'

 4/4
  Wx4
|--------|
|--------|
|--------|
|--------|
|--------|
|--------|


  Q=80
  Gtr I
   E   E  E  E  E  E  E E    E  E  E  E  E  E  E  E    E  E  E  E  E  E  E  E   E E E E E  E  E  E
|-20--22-20-19-17-15-10-8-|-17-15-13-15-12----12-13-|-25-24-20----------13-12-|---0-3-6-9-12-15-18-|
|-------------------------|----------------11-------|----------22----22-------|-2------------------|
|--9p==5--------------7-5-|--7--7--7--7--9--9--9--9-|-10--9-------22----10--9-|--------------------|
|--8---7--5--3--2--0------|--7-----------8----------|--7-----7-----7-----7----|-8-8----------------|
|---------------------3-1-|--------7----------10----|-------------------------|-----7-7------------|
|-------------------------|-------------------------|-------------------------|---------9--6--3--0-|
|
| Gtr I
|  Q      Q     Q     Q      Q     Q     Q     Q       Q     Q     Q     Q      E E E E E  E  E  E
|-------------------------|-------------------------|-------------------------|--------------------|
|-------------------------|-------------------------|-------------------------|-8-8----------------|
|--5p=====2-----3-----2---|--2-----2-----3-----3----|-------------------------|-----6-6------------|
|--2------2-----2-----2---|--3-----3-----5-----5----|-------------------------|-5-5-----8--8--5--5-|
|--0------0-----0-----0---|-------------------------|--8-----7-----8-----7----|-----4-4------------|
|-------------------------|--1-----1-----3-----3----|--6-----5-----6-----5----|---------6--6--3--3-|
|
| Gtr V
|  H..                  E    Q     Q     Q     Q       E  E  H           E  E   Q   Q   Q     Q
|-------------------------|-------------------------|-------------------------|--------------------|
|-------------------------|-------------------------|-------------------------|--------------------|
|-------------------------|-------------------------|-------------------------|--------------------|
|-------------------------|--------3-----------5----|-------------------------|--------------------|
|--0----------------------|-------------------------|--1--0--------------1--0-|-----4--------------|
|-----------------------1-|--1-----------3----------|-------------------------|-5-------6-----3----|


                                                                              |-3--|
   E E  E  E  E  E E  E    E  E  E  E  E  E  E  E    E  E  E  E  E  E  E  E   E E  E  E  E  E  E  E  E
|-12-8------------------|-17-13-12-------17-18-20-|-21-18-17-18-17-15-------|-----------------10-12-13----|
|------10-11-10-11-8-10-|----------10-15----------|-------------------18-17-|-5-6--8-10-11-13-------------|
|--9p5-------------7--5-|--9--9--9--9--7--7--7--7-|--6----------------------|------------------7--9-10----|
|--8-7--5--3--2--0------|--7-----7-----8-----8----|-----8--7--8--7--5-------|---------7--8-10-------------|
|------------------3--1-|-------------------------|--------------------8--7-|-7-8-10----------------------|
|-----------------------|-------------------------|-------------------------|-----------------------------|
|
|                                                                             |-3--|
|  Q    Q     Q    Q       Q     Q     Q     Q       E  E  E  E  E  E  E  E   E E  E  E  E  E  E  E  E
|-----------------------|-------------------------|-------------------------|-----------------------------|
|-----------------------|-------------------------|-------------------------|---------------------5--6----|
|--5p===2-----3----5----|--5-----5-----3-----3----|--6--3--2--3--2----------|---------2--3--5--7----------|
|--2----2-----2----2----|--2-----2-----5-----5----|-----------------5--3--2-|-2-3--5--------------2--3----|
|--0----0---------------|--0-----0----------------|--4--1--0--1--0----------|---------0--1--3--5----------|
|-----------------------|--------------5-----5----|-----------------3--1--0-|-0-1--3----------------------|
|
|                                                                             |-3--|
|  H          H            Q     Q     Q     Q       Q     Q     Q     Q      E E  E  E  E  E  E  E  E
|-----------------------|-------------------------|-------------------------|-----------------------------|
|-----------------------|-------------------------|-------------------------|-----------------------------|
|-----------------------|-------------------------|-------------------------|-----------------------------|
|-------------7---------|-------------------------|-------------------------|-----------------------------|
|--0--------------------|--0-----0----------------|--4-----1----------------|---------0--1--3--5----------|
|-----------------------|--------------3-----3----|--------------3-----0----|-0-1--3--------------0--1----|


  H
|------|
|------|
|------|
|------|
|------|
|------|


  Q=102
  Gtr I
  W                                       H                  S S S S S  S  S  S
|--------------------------------------|-----------------------0-3-6-9-12-15-18-|
|--------------------------------------|---------------------2------------------|
|--------------------------------------|---------------------0-0----------------|
|--------------------------------------|---------------------8-8-2-2------------|
|--------------------------------------|-------------------------4-4-4--4--1--1-|
|--------------------------------------|-----------------------------9--9--3--3-|
|
| Gtr II
| S  S S S S S S S  S  S  S  S S S S S    S  S S S S S  S  S S S S S S  S  S  S
|--------------------------------------|----------------------------------------|
|--------------------------------------|----------------------------------------|
|-9--9---------7-5-10-10-10-10-9-9-9-9-|-10-\9---------10--9--------------------|
|-8-10-7-7-7-7-8-7-12-12-12-12-8-8-8-8-|--7--7-7-7-7-7--7--7-8-8----------------|
|--------------------------------------|-------------------------7-7------------|
|--------------------------------------|-----------------------------9--9--6--6-|
|
| Gtr II
| S  S S S S S S S  S  S  S  S S S S S    S  S S S S S  S  S S S S S S  S  S  S
|--------------------------------------|----------------------------------------|
|--------------------------------------|----------------------------------------|
|-5p=2---------3-2--2--2--2--2-3-3-3-3-|----------------------------------------|
|-2--2-2-2-2-2-2-2--3--3--3--3-5-5-5-5-|---------------------5-5----------------|
|-0--0-0-0-0-0-------------------------|--8-\7----------8-\7-----4-4------------|
|--------------------------------------|--6-\5-5-5-5-5--6-\5---------6--6--3--3-|


                                                               |-3--|
   S  S  S                              S  S  S  S  S  S  S  S S S  S  S  S  S  S  S  S
|-17--7-17---------------------------|-21-18-17-18-17-15-----------------------10-12-13----|
|-17-17-17---------------------------|-------------------18-17-5-6--8-10-11-13-------------|
|-17-17-17---------------------------|--6---------------------------------------7--9-10----|
|------------------------------------|-----8--7--8--7--5---------------7--8-10-------------|
|------------------------------------|--------------------8--7-7-8-10----------------------|
|------------------------------------|-----------------------------------------------------|
|
|                                                              |-3--|
|  S  S  S S S S S S S S S S S S S S    S  S  S  S  S  S  S  S S S  S  S  S  S  S  S  S
|------------------------------------|-----------------------------------------------------|
|------------------------------------|-----------------------------------------------------|
|--9p=5----------7-5-9-9-9-9-7-7-7-7-|--6---------------------------------------7--9-10----|
|--8--7--7-7-7-7-8-7-7-7-7-7-8-8-8-8-|-----8--7--8--7--5---------------7--8-10-------------|
|------------------------------------|--------------------8--7-7-8-10----------------------|
|------------------------------------|-----------------------------------------------------|
|
|                                                              |-3--|
|  S  S  S S S S S S S S S S S S S S    S  S  S  S  S  S  S  S S S  S  S  S  S  S  S  S
|------------------------------------|-----------------------------------------------------|
|------------------------------------|-----------------------------------------------------|
|--5p=2----------3-2-5-5-5-5-3-3-3-3-|-----------------------------------------------------|
|--2--2--2-2-2-2-2-2-2-2-2-2-5-5-5-5-|---------------------------------------------2--3----|
|------------------------------------|--4--1--0--1--0------------------0--1--3--5----------|
|------------------------------------|-----------------3--1--0-0-1--3----------------------|


  Gtr I
  W                                       H                  S S S S S  S  S  S
|--------------------------------------|-----------------------0-3-6-9-12-15-18-|
|--------------------------------------|---------------------2------------------|
|--------------------------------------|---------------------0-0----------------|
|--------------------------------------|---------------------8-8-2-2------------|
|--------------------------------------|-------------------------4-4-4--4--1--1-|
|--------------------------------------|-----------------------------9--9--3--3-|
|
| Gtr II
| S  S S S S S S S  S  S  S  S S S S S    S  S S S S S  S  S S S S S S  S  S  S
|--------------------------------------|----------------------------------------|
|--------------------------------------|----------------------------------------|
|-9--9---------7-5-10-10-10-10-9-9-9-9-|-10-\9---------10--9--------------------|
|-8-10-7-7-7-7-8-7-12-12-12-12-8-8-8-8-|--7--7-7-7-7-7--7--7-8-8----------------|
|--------------------------------------|-------------------------7-7------------|
|--------------------------------------|-----------------------------9--9--6--6-|
|
| Gtr II
| S  S S S S S S S  S  S  S  S S S S S    S  S S S S S  S  S S S S S S  S  S  S
|--------------------------------------|----------------------------------------|
|--------------------------------------|----------------------------------------|
|-5p=2---------3-2--2--2--2--2-3-3-3-3-|----------------------------------------|
|-2--2-2-2-2-2-2-2--3--3--3--3-5-5-5-5-|---------------------5-5----------------|
|--------------------------------------|--8-\7----------8-\7-----4-4------------|
|--------------------------------------|--6-\5-5-5-5-5--6-\5---------6--6--3--3-|


                                                               |-3--|
   S  S  S                              S  S  S  S  S  S  S  S S S  S  S  S  S  S  S  S
|-17--7-17---------------------------|-21-18-17-18-17-15-----------------------10-12-13----|
|-17-17-17---------------------------|-------------------18-17-5-6--8-10-11-13-------------|
|-17-17-17---------------------------|--6---------------------------------------7--9-10----|
|------------------------------------|-----8--7--8--7--5---------------7--8-10-------------|
|------------------------------------|--------------------8--7-7-8-10----------------------|
|------------------------------------|-----------------------------------------------------|
|
|                                                              |-3--|
|  S  S  S S S S S S S S S S S S S S    S  S  S  S  S  S  S  S S S  S  S  S  S  S  S  S
|------------------------------------|-----------------------------------------------------|
|------------------------------------|-----------------------------------------------------|
|--9p=5----------7-5-9-9-9-9-7-7-7-7-|--6---------------------------------------7--9-10----|
|--8--7--7-7-7-7-8-7-7-7-7-7-8-8-8-8-|-----8--7--8--7--5---------------7--8-10-------------|
|------------------------------------|--------------------8--7-7-8-10----------------------|
|------------------------------------|-----------------------------------------------------|
|
|                                                              |-3--|
|  S  S  S S S S S S S S S S S S S S    S  S  S  S  S  S  S  S S S  S  S  S  S  S  S  S
|------------------------------------|-----------------------------------------------------|
|------------------------------------|-----------------------------------------------------|
|--5p=2----------3-2-5-5-5-5-3-3-3-3-|-----------------------------------------------------|
|--2--2--2-2-2-2-2-2-2-2-2-2-5-5-5-5-|---------------------------------------------2--3----|
|------------------------------------|--4--1--0--1--0------------------0--1--3--5----------|
|------------------------------------|-----------------3--1--0-0-1--3----------------------|


  Gtr I
  |-3--|
  S S  S  S  S  S  S  S  S
|-----------------10-12-13----|
|-5-6--8-10-11-13-------------|
|------------------7--9-10----|
|---------7--8-10-------------|
|-7-8-10----------------------|
|-----------------------------|
|
| Gtr II
| |-3--|
| S S  S  S  S  S  S  S  S
|-----------------------------|
|-----------------------------|
|------------------7--9-10----|
|---------7--8-10-------------|
|-7-8-10----------------------|
|-----------------------------|
|
| Gtr V
| |-3--|
| S S  S  S  S  S  S  S  S
|-----------------------------|
|-----------------------------|
|-----------------------------|
|---------------------2--3----|
|---------0--1--3--5----------|
|-0-1--3----------------------|


  Gtr I
   Q   S S S S S S S S S S S S   S  S S S S S S S  S  S S S S S S S
|-17-------------------5-5-----|------------------------------------|
|-17-------------5-5-5-----5-5-|--------2-----5-----------5-----8---|
|------2-2-5-5-5---------------|-3--3-3---3-3---3-/6--6-6---6-6---6-|
|--3---------------------------|------------------------------------|
|------------------------------|------------------------------------|
|------------------------------|------------------------------------|
|
| Gtr I
|  Q   S S S S S S S S S S S S   S  S S S S S S S  S  S S S S S S S
|-12---------------------------|------------------------------------|
|-10---------------------------|------------------------------------|
|----------------------5-5-----|--------3-----6-----------6-----9---|
|----------------7-7-7-----7-7-|-5--5-5---5-5---5-/8--8-8---8-8---8-|
|----------7-7-7---------------|------------------------------------|
|--5---8-8---------------------|------------------------------------|
|
| Gtr III
|  H.                            Q.           E    Q.
|------------------------------|------------------------------------|
|------------------------------|-------------------2----------------|
|--2---------------------------|-0-----------------0----------------|
|--3---------------------------|-2-----------------2----------------|
|--0---------------------------|-1-----------------1----------------|
|--1---------------------------|-3-----------------0----------------|


  S  S S S S S S S S S S S S S S S   S S S S S S S S S S S S  S S S S
|--------------------------5-5-----|----------------------------------|
|--------------------5-5-5-----5-5-|----------------------------------|
|--------2-2-2-5-5-5---------------|----------------------------------|
|-3--3-3---------------------------|-8-8-8-8-8-8-5-5------------------|
|----------------------------------|-----------------7-7-4-4----------|
|----------------------------------|--------------------------6-6-3-3-|
|
| S  S S S S S S S S S S S S S S S   S S S S S S S S S S S S  S S S T
|----------------------------------|----------------------------------|
|----------------------------------|----------------------------------|
|--------------------------5-5-----|----------------------------------|
|--------------------7-7-7-----7-7-|-5-5-5-5-5-5-2-2------------------|
|--------------7-7-7---------------|-----------------4-4-1-1----------|
|-5--5-5-8-8-8---------------------|--------------------------3-3-0-0-|
|
| H.                                 Q       Q       Q        Q
|----------------------------------|----------------------------------|
|-5--------------------------------|----------------------------------|
|-2--------------------------------|-0-------3-------6--------9-------|
|-3--------------------------------|-2-------5-------8-------11-------|
|-0--------------------------------|--------------------------0-------|
|----------------------------------|-0-------6-------9----------------|


  Gtr I
  S  S S  S  S  S S S S  S  S  S  S  S  S  S   S  S S S S S S S   S   S  S S  S  S  S  S
|--------------------------------------------|--------6-----9--------------9-------12----|
|-----------------------10-10-10-13-13-10-10-|-8--8-8---8-8---8-/11--11-11---11-11----11-|
|-----------------9-9-9----------------------|-------------------------------------------|
|-7--7-7-10-10-10----------------------------|-------------------------------------------|
|--------------------------------------------|-------------------------------------------|
|--------------------------------------------|-------------------------------------------|
|
| Gtr I
| S  S S  S  S  S S S S  S  S  S  S  S  S  S   S  S S S S S S S   S   S  S S  S  S  S  S
|---------------------------------5--5-------|-------------------------------------------|
|------------------------5--5--5--------5--5-|--------2-----5--------------5--------8----|
|---------2--2--2-5-5-5----------------------|-3--3-3---3-3---3--/6---6--6----6--6-----6-|
|-3--3-3-------------------------------------|-------------------------------------------|
|--------------------------------------------|-------------------------------------------|
|--------------------------------------------|-------------------------------------------|
|
| Gtr III
| H.                                           Q.           E     Q.
|--------------------------------------------|-------------------------------------------|
|-3------------------------------------------|--------------------2----------------------|
|-2------------------------------------------|-0------------------0----------------------|
|-3------------------------------------------|-2------------------2----------------------|
|-0------------------------------------------|-1------------------1----------------------|
|-1------------------------------------------|-3------------------0----------------------|


  S  S S  S  S  S S S S  S  S  S  S  S  S  S    S  S  S  S  S  S S S  S  S S S  S  S S S
|--------------------------------------------|----------------------------------------------|
|-----------------------10-10-10-13-13-10-10-|----------------------------------------------|
|-----------------9-9-9----------------------|-12-12-12-12-12-12-9-9------------------------|
|-7--7-7-10-10-10----------------------------|-----------------------11-11-8-8--------------|
|--------------------------------------------|---------------------------------10-10-7-7----|
|--------------------------------------------|----------------------------------------------|
|
| S  S S  S  S  S S S S  S  S  S  S  S  S  S    S  S  S  S  S  S S S  S  S S S  S  S S S
|---------------------------------5--5-------|----------------------------------------------|
|------------------------5--5--5--------5--5-|----------------------------------------------|
|---------2--2--2-5-5-5----------------------|----------------------------------------------|
|-3--3-3-------------------------------------|--8--8--8--8--8--8-5-5------------------------|
|--------------------------------------------|------------------------7--7-4-4--------------|
|--------------------------------------------|----------------------------------6--6-3-3----|
|
| H.                                            Q           Q         Q         Q
|--------------------------------------------|----------------------------------------------|
|-5------------------------------------------|----------------------------------------------|
|-2------------------------------------------|--0-----------3---------6---------9-----------|
|-3------------------------------------------|--2-----------5---------8--------11-----------|
|-0------------------------------------------|----------------------------------0-----------|
|--------------------------------------------|--0-----------6---------9---------------------|


  Gtr I
   S  S S S S S S S S S S S S S S T
|-----------------------------------|
|-----------------------------------|
|-----------------------------------|
|-/5--5-5-5-5-5-2-2-----------------|
|-------------------4-4-1-1---------|
|---------------------------3-3-0-0-|
|
| Gtr I
|  S  S S S S S S S S S S S S S S S
|-----------------------------------|
|-----------------------------------|
|-----------------------------------|
|--8--8-8-8-8-8-5-5-----------------|
|-------------------7-7-4-4---------|
|---------------------------6-6-3-3-|
|
|  H.
|--0--------------------------------|
|--2--------------------------------|
|--0--------------------------------|
|--2--------------------------------|
|--1--------------------------------|
|--0--------------------------------|


  Gtr I
   S  S  S S S S  S  S  S S S S S S S S    S   S S S S S S S  S   S  S  S  S  S  S  S
|-13-12----------17-12------------------|-20--19-------------16--13-12-22-19-16-13-16-|
|---------------------------------------|---------------------------------------------|
|-----------------2-(2)-----------------|---------------------------------------------|
|--3p=2-----------3p=2------------------|-10---9--------------------------------------|
|--2-(2)----------2-(2)-----------------|--8---7-7-7-7-7-7-7------------5--2----------|
|--0-----0-0-0-0--------0-0-0-0-0-0-0-0-|---------------------4---1--0--------4--1--4-|
|
| Gtr I
|  S  S  S S S S  S  S  S S S S S S S S    S   S S S S S S S  S   S  S  S  S  S  S  S
|---------------------------------------|---------------------------------------------|
|---------------------------------------|---------------------------------------------|
|---------------------------------------|---------------------------------------------|
|-10p=9----------10p=9------------------|---------------------------------------------|
|--7-(7)-7-7-7-7--7--7--7-7-7-7-7-7-7-7-|--3---2------------------------5--2----------|
|---------------------------------------|--1---0-0-0-0-0-0-0--4---1--0--------4--1--4-|
|
| Gtr III
|  H.                                      Q.            E    Q.
|-^3------------------------------------|--0------------------1-----------------------|
|-^0------------------------------------|--1------------------3-----------------------|
|-^0------------------------------------|--0------------------1-----------------------|
|-^2------------------------------------|--5------------------0-----------------------|
|-^2------------------------------------|--2------------------2-----------------------|
|-^0------------------------------------|--0------------------1-----------------------|


                                                            |-3-| |-3-| |-3-|
   S  S  S S S S  S  S  S S S S S S S S    S  S S S S S S S S S S S S S S S S S.
|-25-24---------------------------------|------------------------------------------|
|---------------------------------------|------------------------------------------|
|-----------------2-(2)-----------------|------------------------------------------|
|--3p=2-----------3p=2------------------|---------------9-9-----------3-6-9-6------|
|--2-(2)----------2-(2)-----------------|--3--2-2-2-5-7-7-7-------3-5---------8----|
|--0-----0-0-0-0--------0-0-0-0-0-0-0-0-|--1--0-0-0-5-7-7-7-4-5-7------------------|
|
|                                                           |-3-| |-3-| |-3-|
|  S  S  S S S S  S  S  S S S S S S S S    S  S S S S S S S S S S S S S S S S S.
|---------------------------------------|------------------------------------------|
|---------------------------------------|------------------------------------------|
|---------------------------------------|------------------------------------------|
|-10p=9----------10p=9------------------|-10--9-9-9-7-9-9-9-------------3-6-3------|
|--7-(7)-7-7-7-7--7--7--7-7-7-7-7-7-7-7-|--8--7-7-7-5-7-7-7-------0-2-5-------5----|
|---------------------------------------|-------------------0-1-4------------------|
|
|  H.                                      H.
|-12------------------------------------|--0---------------------------------------|
|--8------------------------------------|--1---------------------------------------|
|--0------------------------------------|--0---------------------------------------|
|--2------------------------------------|--5---------------------------------------|
|--2------------------------------------|--2---------------------------------------|
|--0------------------------------------|--0---------------------------------------|


  Gtr II
   S  S  S S  S S  S  S  S S S S S S S S    S  S S S S S S S  S  S S S S S S S
|----------------------------------------|-------------------------------------|
|----------------------------------------|-------------------------------------|
|------------------2-(2)-----------------|-------------------------------------|
|--3p=2------------3p=2------------------|-10--9-------------------------------|
|--2-(2)-----------2-(2)-----------------|--8--7-7-7-7-7-7-7---------5-2-------|
|--0-----0-0--0-0--------0-0-0-0-0-0-0-0-|--------------------4--1-0-----4-1-4-|
|
| Gtr VI
|  Q          E    H                        H                 H
|-12---------13---16---------------------|-------------------19----------------|
|----------------------------------------|-------------------------------------|
|----------------------------------------|-------------------------------------|
|----------------------------------------|-------------------------------------|
|----------------------------------------|-------------------------------------|
|----------------------------------------|-------------------------------------|
|
| Gtr III
|  H.                                       Q.           E    Q.
|--3-------------------------------------|--0-----------------1----------------|
|--0-------------------------------------|--1-----------------3----------------|
|--0-------------------------------------|--0-----------------1----------------|
|--2-------------------------------------|--5-----------------0----------------|
|--2-------------------------------------|--2-----------------2----------------|
|--0-------------------------------------|--0-----------------1----------------|


                                                              |-3-|  |-3-|  |-3-|
   S  S  S S  S S S  S   S S S S S S S S   S   S S S S S S S  S S S  S S S  S S S  S.
|----------------------------------------|----------------------------------------------|
|----------------------------------------|----------------------------------------------|
|-----------------2-(2)------------------|----------------------------------------------|
|--3p=2-----------3p=2-------------------|---------------9-9-------------3--6-9-6-------|
|--2-(2)----------2-(2)------------------|-3---2-2-2-5-7-7-7---------3-5-----------8----|
|--0-----0-0--0-0--------0-0-0-0-0-0-0-0-|-1---0-0-0-5-7-7-7--4-5-7---------------------|
|
|  Q          Q          H                 H                  E      E      E      E
|-22---------19---------16---------------|-------------------19-----12-----17-----16----|
|----------------------------------------|----------------------------------------------|
|----------------------------------------|----------------------------------------------|
|----------------------------------------|----------------------------------------------|
|----------------------------------------|----------------------------------------------|
|----------------------------------------|----------------------------------------------|
|
|  H.                                      H..
|-12-------------------------------------|-0--------------------------------------------|
|--8-------------------------------------|-1--------------------------------------------|
|--0-------------------------------------|-0--------------------------------------------|
|--2-------------------------------------|-5--------------------------------------------|
|--2-------------------------------------|-2--------------------------------------------|
|--0-------------------------------------|-0--------------------------------------------|


  Gtr II
   S  S  S S  S S  S  S  S S S S S S S S    S  S S S S S S S  S  S S S S S S S
|----------------------------------------|-------------------------------------|
|----------------------------------------|-------------------------------------|
|------------------2-(2)-----------------|-------------------------------------|
|--3p=2------------3p=2------------------|-10--9-------------------------------|
|--2-(2)-----------2-(2)-----------------|--8--7-7-7-7-7-7-7---------5-2-------|
|--0-----0-0--0-0--------0-0-0-0-0-0-0-0-|--------------------4--1-0-----4-1-4-|
|
| Gtr VI
|  Q          E    H                        H                 H
|-12---------13---16---------------------|-------------------22----------------|
|------------------9---------------------|-------------------15----------------|
|--9---------10--------------------------|-------------------------------------|
|----------------------------------------|-------------------------------------|
|----------------------------------------|-------------------------------------|
|----------------------------------------|-------------------------------------|
|
| Gtr III
|  H.                                       Q.           E    Q.
|--3-------------------------------------|--0-----------------1----------------|
|--0-------------------------------------|--1-----------------3----------------|
|--0-------------------------------------|--0-----------------1----------------|
|--2-------------------------------------|--5-----------------0----------------|
|--2-------------------------------------|--2-----------------2----------------|
|--0-------------------------------------|--0-----------------1----------------|


                                                              |-3-|  |-3-|  |-3-|
   S  S  S S  S S S  S   S S S S S S S S   S   S S S S S S S  S S S  S S S  S S S  S.
|----------------------------------------|----------------------------------------------|
|----------------------------------------|----------------------------------------------|
|-----------------2-(2)------------------|----------------------------------------------|
|--3p=2-----------3p=2-------------------|---------------9-9-------------3--6-9-6-------|
|--2-(2)----------2-(2)------------------|-3---2-2-2-5-7-7-7---------3-5-----------8----|
|--0-----0-0--0-0--------0-0-0-0-0-0-0-0-|-1---0-0-0-5-7-7-7--4-5-7---------------------|
|
|  Q          Q          H                 H                  E      E      E      E
|-24---------22--------------------------|-------------------19-----12-----17-----16----|
|-17---------15---------24---------------|----------------------------------------------|
|-----------------------16---------------|-------------------16------9-----14-----13----|
|----------------------------------------|----------------------------------------------|
|----------------------------------------|----------------------------------------------|
|----------------------------------------|----------------------------------------------|
|
|  H.                                      H..
|-12-------------------------------------|-0--------------------------------------------|
|--8-------------------------------------|-1--------------------------------------------|
|--0-------------------------------------|-0--------------------------------------------|
|--2-------------------------------------|-5--------------------------------------------|
|--2-------------------------------------|-2--------------------------------------------|
|--0-------------------------------------|-0--------------------------------------------|


   W
|-12----|
|-12----|
|--9----|
|-------|
|-------|
|--0----|
|
| Gtr III
|  W
|--0----|
|--0----|
|--0----|
|--2----|
|--2----|
|--0----|


  Gtr V
  S S S S S S S S S S S S S S S S   S S S S S S S S S S S S S S S S
|---------------------------------|---------------------------------|
|---------------------------------|---------------------------------|
|---------------------------------|---------------------------------|
|---------------------------------|---------------------------------|
|-------2---------5-------5-------|-------2---------5-------8-------|
|-0-1-4---0-0-1-4---4-1-0---4-1-0-|-0-1-4---0-0-1-4---4-1-0---7-4-0-|


  S S S S S S S S S S S S S S S S   S S S S S S S S S S S S  S  S S S
|---------------------------------|--------------------------------------|
|---------------------------------|--------------------------------------|
|---------------------------------|--------------------------------------|
|---------------------------------|--------------------------------------|
|-------2---------5-------5-------|-------2---------8-------11-----------|
|-0-1-4---0-0-1-4---4-1-0---4-1-0-|-0-1-4---0-0h1-4---7-4-0----10-7-0----|


  Gtr I
  S S S S S S S S S S S S S S S S   S S S S S S S S S S S S  S S S S
|---------------------------------|----------------------------------|
|---------------------------------|----------------------------------|
|---------------------------------|----------------------------------|
|---------------------------------|----------------------------------|
|-------2---------5-------5-------|-------2---------5-------/8-------|
|-0-1-4---0-0-1-4---4-1-0---4-1-0-|-0-1-4---0-0-1-4---4-1-0----7-4-0-|
|
| Gtr V
| S S S S S S S S S S S S S S S S   S S S S S S S S S S S S  S S S S
|---------------------------------|----------------------------------|
|---------------------------------|----------------------------------|
|---------------------------------|----------------------------------|
|---------------------------------|----------------------------------|
|-------2---------5-------5-------|-------2---------5--------8-------|
|-0-1-4---0-0-1-4---4-1-0---4-1-0-|-0-1-4---0-0-1-4---4-1-0----7-4-0-|


  S S S S S S S S S S S S S S S S   S S S S S S S  S  S S S S   S  S S S
|---------------------------------|-----------------------------------------|
|---------------------------------|-----------------------------------------|
|---------------------------------|-----------------------------------------|
|---------------------------------|-----------------------------------------|
|-------2---------5-------5-------|-------2----------/8-------/11-----------|
|-0-1-4---0-0-1-4---4-1-0---4-1-0-|-0-1-4---0-0h1-/4----7-4-0-----10-7-0----|
|
| S S S S S S S S S S S S S S S S   S S S S S S S  S  S S S S   S  S S S
|---------------------------------|-----------------------------------------|
|---------------------------------|-----------------------------------------|
|---------------------------------|-----------------------------------------|
|---------------------------------|-----------------------------------------|
|-------2---------5-------5-------|-------2-----------8--------11-----------|
|-0-1-4---0-0-1-4---4-1-0---4-1-0-|-0-1-4---0-0h1--4----7-4-0-----10-7-0----|


  Gtr I
  S S S S S S S S S S S S S S S S   S S S S S S S S S S S S  S S S S
|---------------------------------|----------------------------------|
|---------------------------------|----------------------------------|
|---------------------------------|----------------------------------|
|---------------------------------|----------------------------------|
|-------2---------5-------5-------|-------2---------5-------/8-------|
|-0-1-4---0-0-1-4---4-1-0---4-1-0-|-0-1-4---0-0-1-4---4-1-0----7-4-0-|
|
| Gtr I
| S S S S S S S S S S S S S S S S   S S S S S S S S S S S S  S S S S
|---------------------------------|----------------------------------|
|---------------------------------|----------------------------------|
|---------------------------------|----------------------------------|
|---------------------------------|--------------------------6-------|
|-------5---------8-------8-------|-------5---------8----------5-----|
|-4-5-7---4-4-5-7---7-5-4---7-5-4-|-4-5-7---4-4-5-7---7-5-4------7-4-|
|
| Gtr V
| S S S S S S S S S S S S S S S S   S S S S S S S S S S S S  S S S S
|---------------------------------|----------------------------------|
|---------------------------------|----------------------------------|
|---------------------------------|----------------------------------|
|---------------------------------|----------------------------------|
|-------2---------5-------5-------|-------2---------5--------8-------|
|-0-1-4---0-0-1-4---4-1-0---4-1-0-|-0-1-4---0-0-1-4---4-1-0----7-4-0-|


  S S S S S S S S S S S S S S S S   S S S S S S S  S  S S S S   S  S  S  S
|---------------------------------|-------------------------------------------|
|---------------------------------|-------------------------------------------|
|---------------------------------|-------------------------------------------|
|---------------------------------|-------------------------------------------|
|-------2---------5-------5-------|-------2----------/8-------/11-------------|
|-0-1-4---0-0-1-4---4-1-0---4-1-0-|-0-1-4---0-0h1-/4----7-4-0-----10--7--0----|
|
| S S S S S S S S S S S S S S S S   S S S S S S S  S  S S S S   S  S  S  S
|---------------------------------|-------------------------------------------|
|---------------------------------|-------------------------------------------|
|---------------------------------|-------------------------------------------|
|---------------------------------|-------------------6---------9-------------|
|-------5---------8-------8-------|-------5-------------5----------8----11----|
|-4-5-7---4-4-5-7---7-5-4---7-5-4-|-4-5-7---4-4-5--7------7-4--------10-------|
|
| S S S S S S S S S S S S S S S S   S S S S S S S  S  S S S S   S  S  S  S
|---------------------------------|-------------------------------------------|
|---------------------------------|-------------------------------------------|
|---------------------------------|-------------------------------------------|
|---------------------------------|-------------------------------------------|
|-------2---------5-------5-------|-------2-----------8--------11-------------|
|-0-1-4---0-0-1-4---4-1-0---4-1-0-|-0-1-4---0-0h1--4----7-4-0-----10--7--0----|


  S S S S S S S S S S S S S S S S   S S S S S S S S S S S S  S S S S
|---------------------------------|----------------------------------|
|---------------------------------|----------------------------------|
|---------------------------------|----------------------------------|
|---------------------------------|----------------------------------|
|-------2---------5-------5-------|-------2---------5-------/8-------|
|-0-1-4---0-0-1-4---4-1-0---4-1-0-|-0-1-4---0-0-1-4---4-1-0----7-4-0-|
|
| Gtr IV
| S S S S S S S S S S S S S S S S   S S S S S S S S S S S S  S S S S
|---------------------------------|----------------------------------|
|---------------------------------|----------------------------------|
|-------4---------7-------7-------|-------4---------7-------10-------|
|---3-6-------3-6---6-3-----6-3---|---3-6-------3-6---6-3------9-6---|
|-7-----2-7-7-----5-----7-5-----7-|-7-----2-7-7-----5-----7--8-----7-|
|-0-1-4---0-0-1-4---4-1-0---4-1-0-|-0-1-4---0-0-1-4---4-1-0----7-4-0-|
|
| Gtr V
| S S S S S S S S S S S S S S S S   S S S S S S S S S S S S  S S S S
|---------------------------------|----------------------------------|
|---------------------------------|----------------------------------|
|---------------------------------|----------------------------------|
|---------------------------------|----------------------------------|
|-------2---------5-------5-------|-------2---------5--------8-------|
|-0-1-4---0-0-1-4---4-1-0---4-1-0-|-0-1-4---0-0-1-4---4-1-0----7-4-0-|


                                                                     PM
  S S S S S S S S S S S S S S S S   S S S S S S S S  S S S S  S  S S S
|---------------------------------|---------------------------------------|
|---------------------------------|---------------------------------------|
|---------------------------------|---------------------------------------|
|---------------------------------|---------------------------------------|
|-------2---------5-------5-------|-------2----------8-------11-----------|
|-0-1-4---0-0-1-4---4-1-0---4-1-0-|-0-1-4---0-0h1-4----7-4-0----10-7-0----|
|
| S S S S S S S S S S S S S S S S   S S S S S S S S  S S S S  S  S S S
|---------------------------------|---------------------------------------|
|---------------------------------|---------------------------------------|
|-------4---------7-------7-------|-------4---------10-------13-----------|
|---3-6-------3-6---6-3-----6-3---|---3-6-------3-6----9-6------12-9------|
|-7-----2-7-7-----5-----7-5-----7-|-7-----2-7-7------8-----7-11------7----|
|-0-1-4---0-0-1-4---4-1-0---4-1-0-|-0-1-4---0-0h1-4----7-4-0----10-7-0----|
|
| S S S S S S S S S S S S S S S S   S S S S S S S S  S S S S  S  S S S
|---------------------------------|---------------------------------------|
|---------------------------------|---------------------------------------|
|---------------------------------|---------------------------------------|
|---------------------------------|---------------------------------------|
|-------2---------5-------5-------|-------2----------8-------11-----------|
|-0-1-4---0-0-1-4---4-1-0---4-1-0-|-0-1-4---0-0h1-4----7-4-0----10-7-0----|


  Gtr II
  S S S S S S S S S S S S S S S S    S  S S S S S  S  S S S S S S S S S
|---------------------------------|-------------------------------------|
|---------------------------------|-------------------------------------|
|-9p5---------7-5-7-7-7-7-9-9-9-9-|-10-\9---------10--9-----------------|
|-8-7-7-7-7-7-8-7-7-7-7-7-8-8-8-8-|--7--7-7-7-7-7--7--7-8-8-------------|
|---------------------------------|-------------------------7-7---------|
|---------------------------------|-----------------------------9-9-6-6-|
|
| Gtr II
| S S S S S S S S S S S S S S S S    S  S S S S S  S  S S S S S S S S S
|---------------------------------|-------------------------------------|
|---------------------------------|-------------------------------------|
|-5p2---------3-2-2-2-2-2-3-3-3-3-|-------------------------------------|
|-2-2-2-2-2-2-2-2-3-3-3-3-5-5-5-5-|---------------------5-5-------------|
|---------------------------------|--8-\7----------8-\7-----4-4---------|
|---------------------------------|--6-\5-5-5-5-5--6-\5---------6-6-3-3-|


                                                    |-3--|
  S S S S S S S S S S S S S S S S   S S S S S S S S S S  S S S  S S S  S
|---------------------------------|-----------------------------------------|
|---------------------------------|-----------------------------------------|
|-9p5---------7-5-9-9-9-9-7-7-7-7-|-6-----------------------------7-9-10----|
|-8-7-7-7-7-7-8-7-7-7-7-7-8-8-8-8-|---8-7-8-7-5------------7-8-10-----------|
|---------------------------------|-------------8-7-7-8-10------------------|
|---------------------------------|-----------------------------------------|
|
|                                                   |-3--|
| S S S S S S S S S S S S S S S S   S S S S S S S S S S  S S S  S S S  S
|---------------------------------|-----------------------------------------|
|---------------------------------|-----------------------------------------|
|-5p2---------3-5-5-5-5-5-3-3-3-3-|-----------------------------------------|
|-2-2-2-2-2-2-2-2-2-2-2-2-5-5-5-5-|---------------------------------2--3----|
|---------------------------------|-4-1-0-1-0--------------0-1--3-5---------|
|---------------------------------|-----------3-1-0-0-1--3------------------|


  Gtr II
  S S S S S S S S S S S S S S S S    S  S S S S S  S  S S S S S S S S S
|---------------------------------|-------------------------------------|
|---------------------------------|-------------------------------------|
|-9p5---------7-5-7-7-7-7-9-9-9-9-|-10-\9---------10--9-----------------|
|-8-7-7-7-7-7-8-7-7-7-7-7-8-8-8-8-|--7--7-7-7-7-7--7--7-8-8-------------|
|---------------------------------|-------------------------7-7---------|
|---------------------------------|-----------------------------9-9-6-6-|
|
| Gtr II
| S S S S S S S S S S S S S S S S    S  S S S S S  S  S S S S S S S S S
|---------------------------------|-------------------------------------|
|---------------------------------|-------------------------------------|
|-5p2---------3-2-2-2-2-2-3-3-3-3-|-------------------------------------|
|-2-2-2-2-2-2-2-2-3-3-3-3-5-5-5-5-|---------------------5-5-------------|
|---------------------------------|--8-\7----------8-\7-----4-4---------|
|---------------------------------|--6-\5-5-5-5-5--6-\5---------6-6-3-3-|


                                                    |-3--|
  S S S S S S S S S S S S S S S S   S S S S S S S S S S  S S S  S S S  S
|---------------------------------|-----------------------------------------|
|---------------------------------|-----------------------------------------|
|-9p5---------7-5-9-9-9-9-7-7-7-7-|-6-----------------------------7-9-10----|
|-8-7-7-7-7-7-8-7-7-7-7-7-8-8-8-8-|---8-7-8-7-5------------7-8-10-----------|
|---------------------------------|-------------8-7-7-8-10------------------|
|---------------------------------|-----------------------------------------|
|
|                                                   |-3--|
| S S S S S S S S S S S S S S S S   S S S S S S S S S S  S S S  S S S  S
|---------------------------------|-----------------------------------------|
|---------------------------------|-----------------------------------------|
|-5p2---------3-5-5-5-5-5-3-3-3-3-|-----------------------------------------|
|-2-2-2-2-2-2-2-2-2-2-2-2-5-5-5-5-|---------------------------------2--3----|
|---------------------------------|-4-1-0-1-0--------------0-1--3-5---------|
|---------------------------------|-----------3-1-0-0-1--3------------------|


  Gtr I
  |-3-|
  S S S S S S S S S
|----------------------|
|-------------3-5-6----|
|-------2-3-5----------|
|-2-3-5----------------|
|----------------------|
|----------------------|
|
| Gtr IV
| |-3-|
| S S S S S S S S S
|----------------------|
|-------------3-5-6----|
|-------2-3-5----------|
|-2-3-5----------------|
|----------------------|
|----------------------|
|
| Gtr I
| |-3-|
| S S S S S S S S S
|----------------------|
|----------------------|
|----------------------|
|---------------2-3----|
|-------0-1-3-5--------|
|-0-1-3----------------|


  Gtr I
   S S S S S S S S S S S S S S S S   S S S S S S S S  S S S S S S S S
|--------------------------5-5-----|----------------------------------|
|--------------------5-5-5-----5-5-|-------2-----5----------5-----8---|
|--------2-2-2-5-5-5---------------|-3-3-3---3-3---3-/6-6-6---6-6---6-|
|--3-3-3---------------------------|----------------------------------|
|----------------------------------|----------------------------------|
|----------------------------------|----------------------------------|
|
| Gtr I
|  S S S S S S S S S S S S S S S S   S S S S S S S S  S S S S S S S S
|----------------------------------|----------------------------------|
|----------------------------------|----------------------------------|
|--------------------------5-5-----|-------3-----6----------6-----9---|
|--------------------7-7-7-----7-7-|-5-5-5---5-5---5-/8-8-8---8-8---8-|
|--------------7-7-7---------------|----------------------------------|
|-/5-5-5-8-8-8---------------------|----------------------------------|
|
| Gtr III
|  W                                 H                H
|----------------------------------|----------------------------------|
|--3-------------------------------|------------------2---------------|
|--2-------------------------------|-0----------------0---------------|
|--3-------------------------------|-2----------------2---------------|
|--0-------------------------------|-1----------------1---------------|
|--1-------------------------------|-3----------------0---------------|


  S S S S S S S S S S S S S S S S    S S S S S S S S S S S S  S S S S
|-------------------------5-5-----|--------------------------------------|
|-------------------5-5-5-----5-5-|--------------------------------------|
|-------2-2-2-5-5-5---------------|--------------------------------------|
|-3-3-3---------------------------|--8-8-8-8-8-8-5-5---------------------|
|---------------------------------|------------------7-7-4-4-------------|
|---------------------------------|---------------------------6-6-3-3----|
|
| S S S S S S S S S S S S S S S S    S S S S S S S S S S S S  S S S T
|---------------------------------|--------------------------------------|
|---------------------------------|--------------------------------------|
|-------------------------5-5-----|--------------------------------------|
|-------------------7-7-7-----7-7-|-/5-5-5-5-5-5-2-2---------------------|
|-------------7-7-7---------------|------------------4-4-1-1-------------|
|-5-5-5-8-8-8---------------------|---------------------------3-3-0-0----|
|
| W                                  Q       Q       Q        Q
|---------------------------------|--------------------------------------|
|-5-------------------------------|--------------------------------------|
|-2-------------------------------|--0-------3-------6--------9----------|
|-3-------------------------------|--2-------5-------8-------11----------|
|-0-------------------------------|---------------------------0----------|
|---------------------------------|--0-------6-------9-------------------|


  Gtr I
  S S S  S  S  S S S S  S  S  S  S  S  S  S   S S S S S S S S   S  S  S S  S  S  S  S
|-------------------------------------------|-------6-----9-------------9-------12----|
|----------------------10-10-10-13-13-10-10-|-8-8-8---8-8---8-/11-11-11---11-11----11-|
|----------------9-9-9----------------------|-----------------------------------------|
|-7-7-7-10-10-10----------------------------|-----------------------------------------|
|-------------------------------------------|-----------------------------------------|
|-------------------------------------------|-----------------------------------------|
|
| Gtr I
| PM
| S S S  S  S  S S S S  S  S  S  S  S  S  S   S S S S S S S S   S  S  S S  S  S  S  S
|--------------------------------5--5-------|-----------------------------------------|
|-----------------------5--5--5--------5--5-|-------2-----5-------------5--------8----|
|--------2--2--2-5-5-5----------------------|-3-3-3---3-3---3--/6--6--6----6--6-----6-|
|-3-3-3-------------------------------------|-----------------------------------------|
|-------------------------------------------|-----------------------------------------|
|-------------------------------------------|-----------------------------------------|
|
| Gtr III
| W                                           H                 H
|-------------------------------------------|-----------------------------------------|
|-3-----------------------------------------|-------------------2---------------------|
|-2-----------------------------------------|-0-----------------0---------------------|
|-3-----------------------------------------|-2-----------------2---------------------|
|-0-----------------------------------------|-1-----------------1---------------------|
|-1-----------------------------------------|-3-----------------0---------------------|


  S S S  S  S  S S S S  S  S  S  S  S  S  S    S  S  S  S  S  S S S  S  S S S  S  S S S
|-------------------------------------------|----------------------------------------------|
|----------------------10-10-10-13-13-10-10-|----------------------------------------------|
|----------------9-9-9----------------------|-12-12-12-12-12-12-9-9------------------------|
|-7-7-7-10-10-10----------------------------|-----------------------11-11-8-8--------------|
|-------------------------------------------|---------------------------------10-10-7-7----|
|-------------------------------------------|----------------------------------------------|
|
| S S S  S  S  S S S S  S  S  S  S  S  S  S    S  S  S  S  S  S S S  S  S S S  S  S S S
|--------------------------------5--5-------|----------------------------------------------|
|-----------------------5--5--5--------5--5-|----------------------------------------------|
|--------2--2--2-5-5-5----------------------|----------------------------------------------|
|-3-3-3-------------------------------------|--8--8--8--8--8--8-5-5------------------------|
|-------------------------------------------|------------------------7--7-4-4--------------|
|-------------------------------------------|----------------------------------6--6-3-3----|
|
| W                                            Q           Q         Q         Q
|-------------------------------------------|----------------------------------------------|
|-5-----------------------------------------|----------------------------------------------|
|-2-----------------------------------------|--0-----------3---------6---------9-----------|
|-3-----------------------------------------|--2-----------5---------8--------11-----------|
|-0-----------------------------------------|----------------------------------0-----------|
|-------------------------------------------|--0-----------6---------9---------------------|


  Gtr I
   S S S S S S S S S S S S S S S T
|-------------------------------------|
|-------------------------------------|
|-------------------------------------|
|-/5-5-5-5-5-5-2-2--------------------|
|------------------4-4-1-1------------|
|--------------------------3-3-0-0----|
|
| Gtr I
|  S S S S S S S S S S S S S S S S
|-------------------------------------|
|-------------------------------------|
|-------------------------------------|
|--8-8-8-8-8-8-5-5--------------------|
|------------------7-7-4-4------------|
|--------------------------6-6-3-3----|
|
|  W
|--0----------------------------------|
|--2----------------------------------|
|--0----------------------------------|
|--2----------------------------------|
|--1----------------------------------|
|--0----------------------------------|


  Gtr II
   S  S  S S S S  S  S  S S S S S S S S    S S S S S S S S S S S S S S S S
|---------------------------------------|----------------------------------|
|---------------------------------------|----------------------------------|
|-----------------2-(2)-----------------|----------------------------------|
|--3p=2-----------3p=2------------------|-10-9-----------------------------|
|--2-(2)----------2-(2)-----------------|--8-7-7-7-7-7-7-7-------5-2-------|
|--0-----0-0-0-0--------0-0-0-0-0-0-0-0-|------------------4-1-0-----4-1-4-|
|
| Gtr II
|  S  S  S S S S  S  S  S S S S S S S S    S S S S S S S S S S S S S S S S
|---------------------------------------|----------------------------------|
|---------------------------------------|----------------------------------|
|---------------------------------------|----------------------------------|
|-10p=9----------10p=9------------------|----------------------------------|
|--7-(7)-7-7-7-7--7--7--7-7-7-7-7-7-7-7-|--3-2-------------------8-5-------|
|---------------------------------------|--1-0-0-0-0-0-0-0-7-4-0-----7-4-7-|
|
| Gtr II
|  e     e   e    e     e   e   e   e      e   e   e   e   e   e   e   e
|---------------------------------------|--0---0---0---0---0---0---0---0---|
|--2-----2---2----2-----2---2---2---3---|--6---6---6---6---6---6---6---6---|
|--2-----2---2----2-----2---2---2---2---|--5---5---5---5---5---5---5---5---|
|--3-----3---3----3-----3---3---3---3---|--6---6---6---6---6---6---6---6---|
|---------------------------------------|----------------------------------|
|---------------------------------------|----------------------------------|


                                                           |-3-| |-3-| |---3---|
   S  S  S S S S  S  S  S S S S S S S S    S S S S S S S S S S S S S S S   S   S   S.
|---------------------------------------|---------------------------------------------------|
|---------------------------------------|---------------------------------------------------|
|-----------------2-(2)-----------------|---------------------------------------------------|
|--3p=2-----------3p=2------------------|--------------9-9-----------3-6---9---6------------|
|--2-(2)----------2-(2)-----------------|--3-2-2-2-5-7-7-7-------3-5---------------8--------|
|--0-----0-0-0-0--------0-0-0-0-0-0-0-0-|--1-0-0-0-5-7-7-7-4-5-7----------------------------|
|
|                                                          |-3-| |3|     |---3---|
|  S  S  S S S S  S  S  S S S S S S S S    S S S S S S S S S S S S S S   S   S   S    S.
|---------------------------------------|---------------------------------------------------|
|---------------------------------------|---------------------------------------------------|
|---------------------------------------|---------------------------------------------------|
|-10p=9----------10p=9------------------|-10-9-9-9-7-9-9-9---------------3---6---3----------|
|--7-(7)-7-7-7-7--7--7--7-7-7-7-7-7-7-7-|--8-7-7-7-5-7-7-7-------0-2-5----------------5-----|
|---------------------------------------|------------------0-1-4----------------------------|
|
|  e     e   e    e     e   e   e   e      e   e   e   e   e     e     e           e
|---------------------------------------|--0---0---0---0---0-----0-----0-----------0--------|
|--2-----2---2----2-----2---2---2---3---|--6---6---6---6---6-----6-----6-----------6--------|
|--2-----2---2----2-----2---2---2---2---|--5---5---5---5---5-----5-----5-----------5--------|
|--3-----3---3----3-----3---3---3---3---|--6---6---6---6---6-----6-----6-----------6--------|
|---------------------------------------|---------------------------------------------------|
|---------------------------------------|---------------------------------------------------|


  Gtr II
  S  S  S S S S S  S  S S S S S S S S    S  S S S S S S S S  S S S S S S S
|-------------------------------------|------------------------------------|
|-------------------------------------|------------------------------------|
|---------------2-(2)-----------------|------------------------------------|
|-3p=2----------3p=2------------------|-10--9------------------------------|
|-2-(2)---------2-(2)-----------------|--8--7-7-7-7-7-7-7--------5-2-------|
|-0-----0-0-0-0-------0-0-0-0-0-0-0-0-|-------------------4--1-0-----4-1-4-|
|
| Gtr III
| H.                                     Q.           E   Q.
|-3-----------------------------------|--0----------------1----------------|
|-0-----------------------------------|--1----------------3----------------|
|-0-----------------------------------|--0----------------1----------------|
|-2-----------------------------------|--5----------------0----------------|
|-2-----------------------------------|--2----------------2----------------|
|-0-----------------------------------|--0----------------1----------------|


                                                           |-3-| |-3-| |-3-|
   S  S  S S S S S  S  S S S S S S S S   S   S S S S S S S S S S S S S S S S S.
|--------------------------------------|------------------------------------------|
|--------------------------------------|------------------------------------------|
|----------------2-(2)-----------------|------------------------------------------|
|--3p=2----------3p=2------------------|---------------9-9-----------3-6-9-6------|
|--2-(2)---------2-(2)-----------------|-3---2-2-2-5-7-7-7-------3-5---------8----|
|--0-----0-0-0-0-------0-0-0-0-0-0-0-0-|-1---0-0-0-5-7-7-7-4-5-7------------------|
|
|  H.                                    H..
|-12-----------------------------------|-0----------------------------------------|
|--8-----------------------------------|-1----------------------------------------|
|--0-----------------------------------|-0----------------------------------------|
|--2-----------------------------------|-5----------------------------------------|
|--2-----------------------------------|-2----------------------------------------|
|--0-----------------------------------|-0----------------------------------------|


  Gtr II
   S  S  S S  S S  S  S  S S S S S S S S    S  S S S S S S S  S  S S S S S S S
|----------------------------------------|-------------------------------------|
|----------------------------------------|-------------------------------------|
|------------------2-(2)-----------------|-------------------------------------|
|--3p=2------------3p=2------------------|-10--9-------------------------------|
|--2-(2)-----------2-(2)-----------------|--8--7-7-7-7-7-7-7---------5-2-------|
|--0-----0-0--0-0--------0-0-0-0-0-0-0-0-|--------------------4--1-0-----4-1-4-|
|
| Gtr VI
|  Q          E    H                        H                 H
|-12---------13---16---------------------|-------------------19----------------|
|----------------------------------------|-------------------------------------|
|----------------------------------------|-------------------------------------|
|----------------------------------------|-------------------------------------|
|----------------------------------------|-------------------------------------|
|----------------------------------------|-------------------------------------|
|
| Gtr III
|  H.                                       Q.           E    Q.
|--3-------------------------------------|--0-----------------1----------------|
|--0-------------------------------------|--1-----------------3----------------|
|--0-------------------------------------|--0-----------------1----------------|
|--2-------------------------------------|--5-----------------0----------------|
|--2-------------------------------------|--2-----------------2----------------|
|--0-------------------------------------|--0-----------------1----------------|


                                                              |-3-|  |-3-|  |-3-|
   S  S  S S  S S S  S   S S S S S S S S   S   S S S S S S S  S S S  S S S  S S S  S.
|----------------------------------------|----------------------------------------------|
|----------------------------------------|----------------------------------------------|
|-----------------2-(2)------------------|----------------------------------------------|
|--3p=2-----------3p=2-------------------|---------------9-9-------------3--6-9-6-------|
|--2-(2)----------2-(2)------------------|-3---2-2-2-5-7-7-7---------3-5-----------8----|
|--0-----0-0--0-0--------0-0-0-0-0-0-0-0-|-1---0-0-0-5-7-7-7--4-5-7---------------------|
|
|  Q          Q          H                 H                  E      E      E      E
|-22---------19---------16---------------|-------------------19-----12-----17-----16----|
|----------------------------------------|----------------------------------------------|
|----------------------------------------|----------------------------------------------|
|----------------------------------------|----------------------------------------------|
|----------------------------------------|----------------------------------------------|
|----------------------------------------|----------------------------------------------|
|
|  H.                                      H..
|-12-------------------------------------|-0--------------------------------------------|
|--8-------------------------------------|-1--------------------------------------------|
|--0-------------------------------------|-0--------------------------------------------|
|--2-------------------------------------|-5--------------------------------------------|
|--2-------------------------------------|-2--------------------------------------------|
|--0-------------------------------------|-0--------------------------------------------|


  Gtr II
   S  S  S S  S S  S  S  S S S S S S S S    S  S S S S S S S  S  S S S S S S S
|----------------------------------------|-------------------------------------|
|----------------------------------------|-------------------------------------|
|------------------2-(2)-----------------|-------------------------------------|
|--3p=2------------3p=2------------------|-10--9-------------------------------|
|--2-(2)-----------2-(2)-----------------|--8--7-7-7-7-7-7-7---------5-2-------|
|--0-----0-0--0-0--------0-0-0-0-0-0-0-0-|--------------------4--1-0-----4-1-4-|
|
| Gtr VI
|  Q          E    H                        H                 H
|-12---------13---16---------------------|-------------------22----------------|
|------------------9---------------------|-------------------15----------------|
|--9---------10--------------------------|-------------------------------------|
|----------------------------------------|-------------------------------------|
|----------------------------------------|-------------------------------------|
|----------------------------------------|-------------------------------------|
|
| Gtr III
|  H.                                       Q.           E    Q.
|--3-------------------------------------|--0-----------------1----------------|
|--0-------------------------------------|--1-----------------3----------------|
|--0-------------------------------------|--0-----------------1----------------|
|--2-------------------------------------|--5-----------------0----------------|
|--2-------------------------------------|--2-----------------2----------------|
|--0-------------------------------------|--0-----------------1----------------|


                                                              |-3-|  |-3-|  |-3-|
   S  S  S S  S S S  S   S S S S S S S S   S   S S S S S S S  S S S  S S S  S S S  S.
|----------------------------------------|----------------------------------------------|
|----------------------------------------|----------------------------------------------|
|-----------------2-(2)------------------|----------------------------------------------|
|--3p=2-----------3p=2-------------------|---------------9-9-------------3--6-9-6-------|
|--2-(2)----------2-(2)------------------|-3---2-2-2-5-7-7-7---------3-5-----------8----|
|--0-----0-0--0-0--------0-0-0-0-0-0-0-0-|-1---0-0-0-5-7-7-7--4-5-7---------------------|
|
|  Q          Q          H                 H                  E      E      E      E
|-24---------22---------19---------------|-------------------19-----12-----17-----16----|
|-17---------15---------12---------------|----------------------------------------------|
|----------------------------------------|----------------------------------------------|
|----------------------------------------|----------------------------------------------|
|----------------------------------------|----------------------------------------------|
|----------------------------------------|----------------------------------------------|
|
|  H.                                      H..
|-12-------------------------------------|-0--------------------------------------------|
|--8-------------------------------------|-1--------------------------------------------|
|--0-------------------------------------|-0--------------------------------------------|
|--2-------------------------------------|-5--------------------------------------------|
|--2-------------------------------------|-2--------------------------------------------|
|--0-------------------------------------|-0--------------------------------------------|



Duration Legend
---------------
W - whole; H - half; Q - quarter; E - 8th; S - 16th; T - 32nd; X - 64th; a - acciaccatura
+ - note tied to previous; . - note dotted; .. - note double dotted
Uncapitalized letters represent notes that are staccato (1/2 duration)
Irregular groupings are notated above the duration line
Duration letters will always appear directly above the note/fret number it represents the
duration for.  Duration letters with no fret number below them represent rests.  Multi-
bar rests are notated in the form Wxn, where n is the number of bars to rest for.  Low
melody durations appear below the staff

Tablature Legend
----------------
 h   - hammer-on
 p   - pull-off
 b   - bend
 pb  - pre-bend
 r   - bend release (if no number after the r, then release immediately)
 /\  - slide into or out of (from/to "nowhere")
 s   - legato slide
 S   - shift slide
<n> - natural harmonic
[n]  - artificial harmonic
n(n) - tapped harmonic
 ~   - vibrato
 tr  - trill
 T   - tap
 TP  - trem. picking
 PM  - palm muting
\n/  - tremolo bar dip; n = amount to dip
 \n  - tremolo bar down
 n/  - tremolo bar up
/n\  - tremolo bar inverted dip
 =   - hold bend; also acts as connecting device for hammers/pulls
 <> - volume swell (louder/softer)
 x   - on rhythm slash represents muted slash
 o   - on rhythm slash represents single note slash

Misc Legend
-----------
 |  - bar
||  - double bar
||o - repeat start
o|| - repeat end
*|  - double bar (ending)
 :  - bar (freetime)
 $  - Segno
 &  - Coda
Tempo markers - <E/E./Q/Q./H/H.> = BPM(8/16=s8/s16), where s8 = swing 8ths, s16 = swing 16ths


** Generated using Power Tab Editor by Brad Larsen: The Official Power Tab Web Site