#----------------------------------PLEASE NOTE---------------------------------#
#This file is the author's own work and represents their interpretation of the #
#song. You may only use this file for private study, scholarship, or research. #
#------------------------------------------------------------------------------#

DOOM OF POMPEII
As recorded by Blood Vacuum
(From the 2005 Album TEMPORAL STORM )

Transcribed by MC

Words by M.Calestino Music by Matthew Calestino
Arranged by MC


Gtr I (D G C F A D) - 'flute'

  Q=96
 4/4
  S S S S S S S S S S S S S S S S   S S S S S S S S S S S S S S S S
|---------------------------------|---------------------------------|
|---------------------------------|---------------------------------|
|---------------------------------|-------------------------------9-|
|---------------------------------|-----------------------------8---|
|---------------------------------|---------------------------7-----|
|-5-1-0-5-1-0-5-1-0-5-1-0-5-1-0-1-|-5-1-0-5-1-0-5-1-0-5-1-0-6-------|


  S S S S S S S S S S S S S S S S   S S S S S S S S S S S S S S S S
|---------------------------------|-----------------------------------|
|---------------------------------|-----------------------------------|
|---------------------------------|-----------------------------------|
|---------------------------------|-----------------------------------|
|---------------------------------|-----------------------7-4---------|
|-5-1-0-5-1-0-5-1-0-5-1-0-5-1-0-1-|-5-1-0-5-1-0-5-1-6-3-0-----6-3-6---|


 4/4
  S S S S S S S S S S S S S S S S   S S S S S S S S S S S S S S S S
|---------------------------------|---------------------------------|
|---------------------------------|---------------------------------|
|---------------------------------|-----------------------------9-0-|
|---------------------------------|---------------------------8-----|
|-7-----7-----7-----7-----7-------|-7-----7-----7-----7-----7-------|
|---8-7---8-7---8-7---8-7---8-7-8-|---8-7---8-7---8-7---8-7---------|
|
| S S S S S S S S S S S S S S S S   S S S S S S S S S S S S S S S S
|---------------------------------|---------------------------------|
|---------------------------------|---------------------------------|
|---------------------------------|-------------------------------9-|
|---------------------------------|-----------------------------8---|
|---------------------------------|---------------------------7-----|
|-5-1-0-5-1-0-5-1-0-5-1-0-5-1-0-1-|-5-1-0-5-1-0-5-1-0-5-1-0-6-------|


  S S S S S S S S S S S S S S S S   S S S S S S S S S S S S S S S S
|---------------------------------|-----------------------------------|
|---------------------------------|-----------------------------------|
|---------------------------------|-----------------------------------|
|---------------------------------|-----------------------5-2---------|
|-7-----7-----7-----7-----7-------|-7-----7-----7---4-1-------4-1-4---|
|---8-7---8-7---8-7---8-7---8-7-8-|---8-7---8-7---8-----3-------------|
|
| S S S S S S S S S S S S S S S S   S S S S S S S S S S S S S S S S
|---------------------------------|-----------------------------------|
|---------------------------------|-----------------------------------|
|---------------------------------|-----------------------------------|
|---------------------------------|-----------------------------------|
|---------------------------------|-----------------------7-4---------|
|-5-1-0-5-1-0-5-1-0-5-1-0-5-1-0-1-|-5-1-0-5-1-0-5-1-6-3-0-----6-3-6---|


   Q        Q        Q        Q          W
|-21-------15--------9-------18--------|----------------|
|--5-------11-------17-------20--------|----------------|
|--6-------12-------18-------12--------|----------------|
|--------------------------------------|----------------|
|--------------------------------------|----------------|
|--------------------------------------|----------------|
|
|  S S S S  S S S S  S S S S  S S S S    E E E E E E Q
|--------------------------------------|-------------0--|
|--------------------------------------|---------0------|
|--------------------------------------|-------0---3----|
|--------5--2--------------5--2--------|-----2----------|
|--4-1--------4-1-4--4-1--------4-1-4--|---4------------|
|------3-----------------3-------------|-6--------------|
|
|  S S S S  S S S S  S S S S  S S S S    H       H
|--------------------------------------|----------------|
|--------------------------------------|----------------|
|--------------------------------------|----------------|
|--------------------------------------|----------------|
|--------7--4--------------7--4--------|-4--------------|
|--6-3-0------6-3-6--6-3-0------6-3-6--|---------0------|


  Q=80
  |-3-|  |--3--| |-3-|  |--3--|   |-3-|  |--3--| |-3-|  |--3--|
  S S S  S  S  S S S S  S  S  S   S S S  S  S  S S S S  S  S  S
|-------------------------------|-------------------------------|
|----------------8-8-8----------|-8-8-8-11-11-11-8-8-8----------|
|-6-6-6--9--9--9-9-9-9--9--9--9-|-9-9-9-12-12-12-9-9-9--9--9--9-|
|-8-8-8-11-11-11-------11-11-11-|----------------------11-11-11-|
|-------------------------------|-------------------------------|
|-------------------------------|-------------------------------|
|
| |-3-|  |--3--| |-3-|  |--3--|   |-3-|  |--3--| |-3-|  |--3--|
| S S S  S  S  S S S S  S  S  S   S S S  S  S  S S S S  S  S  S
|-------------------------------|-------------------------------|
|-------------------------------|-------------------------------|
|-------------------------------|-------------------------------|
|-------------------------------|-------------------------------|
|-1------1-------1------1-------|-1------1-------1------1-------|
|---3-0-----3--0---3-0-----3--0-|---3-0-----3--0---3-0-----3--0-|


  |-3-|  |--3--|  |--3--|  |--3--|    |--3--|  |--3--|  |--3--| |-3-|
  S S S  S  S  S  S  S  S  S  S  S    S  S  S  S  S  S  S  S  S S S S
|-----------------9--9--9----------|-12-12-12--9--9--9-------------------|
|-8-8-8-11-11-11-11-11-11-11-11-11-|-14-14-14-11-11-11-11-11-11-8-8-8----|
|-9-9-9-12-12-12----------12-12-12-|-------------------12-12-12-9-9-9----|
|----------------------------------|-------------------------------------|
|----------------------------------|-------------------------------------|
|----------------------------------|-------------------------------------|
|
| |-3-|  |--3--|  |--3--|  |--3--|    |--3--|  |--3--|  |--3--| |-3-|
| S S S  S  S  S  S  S  S  S  S  S    S  S  S  S  S  S  S  S  S S S S
|----------------------------------|-------------------------------------|
|----------------------------------|-------------------------------------|
|----------------------------------|-------------------------------------|
|----------------------------------|-------------------------------------|
|-4------4--------4--------4-------|--4--------4--------4-------4--------|
|---6-0-----6--0-----6--0-----6--0-|-----6--0-----6--0-----6--0---6-0----|


  |-3-|  |--3--| |-3-|  |--3--|   |-3-|  |--3--| |-3-|  |--3--|
  S S S  S  S  S S S S  S  S  S   S S S  S  S  S S S S  S  S  S
|-------------------------------|-------------------------------|
|----------------8-8-8----------|-8-8-8-11-11-11-8-8-8----------|
|-6-6-6--9--9--9-9-9-9--9--9--9-|-9-9-9-12-12-12-9-9-9--9--9--9-|
|-8-8-8-11-11-11-------11-11-11-|----------------------11-11-11-|
|-------------------------------|-------------------------------|
|-------------------------------|-------------------------------|
|
| |-3-|  |--3--| |-3-|  |--3--|   |-3-|  |--3--| |-3-|  |--3--|
| S S S  S  S  S S S S  S  S  S   S S S  S  S  S S S S  S  S  S
|-------------------------------|-------------------------------|
|-------------------------------|-------------------------------|
|-------------------------------|-------------------------------|
|-------------------------------|-------------------------------|
|-1------1-------1------1-------|-1------1-------1------1-------|
|---3-0-----3--0---3-0-----3--0-|---3-0-----3--0---3-0-----3--0-|


   S  S S  S  S S  S  S  S S S  S S  S  S  S
|------------------------------12-9------------|
|-10------10------10----11-8--------11----11---|
|----10-9----10-9----10------9---------12------|
|--7-------7-------7-----5-2----8-5------------|
|-----8-7-----8-7-----8------4-------7--4--7---|
|----------------------------------------------|
|
|  S  S S  S  S S  S  S  S S S  S S  S  S  S
|----------------------------------------------|
|----------------------------------------------|
|----------------------------------------------|
|----------------------------------------------|
|-------------------------------7-4------------|
|--5--1-0--5--1-0--5--1--6-3-0-------6--3--6---|


  |-3-| |-3-| |-3-| |-3-|   |-3-| |-3-| |-3-| |-3-|
  S S S S S S S S S S S S   S S S S S S S S S S S S
|-------------------------|-------------------------|
|-------------------------|-------------------------|
|-------------------------|-------------------------|
|-----------------------5-|-----------------------5-|
|-4-----7-----4-------4---|-4-----7-----4-------4---|
|---6-0---6-0---3-0-3-----|---6-0---6-0---3-0-3-----|
|
| |-3-| |-3-| |-3-| |-3-|   |-3-| |-3-| |-3-| |-3-|
| S S S S S S S S S S S S   S S S S S S S S S S S S
|-------------------------|-------------------------|
|-------------------------|-------------------------|
|-------------------------|-------------------------|
|-------------------------|-------------------------|
|-1-----1-----1-----1-----|-1-----1-----1-----1-----|
|---3-0---3-0---3-0---3-0-|---3-0---3-0---3-0---3-0-|


  |-3-|  |-3-| |-3-| |-3-|   |-3-|  |-3-| |-3-| |-3-|
  S S S  S S S S S S S S S   S S S  S S S S S S S S S
|--------------------------|-----------------------------|
|--------------------------|-----------------------------|
|--------------------------|-----------------------------|
|------------------------8-|------------------------8----|
|-7-----10-----7-------7---|-7-----10-----7-------7------|
|---9-0----9-0---6-0-6-----|---9-0----9-0---6-0-6--------|
|
| |-3-|  |-3-| |-3-| |-3-|   |-3-|  |-3-| |-3-| |-3-|
| S S S  S S S S S S S S S   S S S  S S S S S S S S S
|--------------------------|-----------------------------|
|--------------------------|-----------------------------|
|--------------------------|-----------------------------|
|--------------------------|-----------------------------|
|-4------4-----4-----4-----|-4------4-----4-----4--------|
|---6-0----6-0---6-0---6-0-|---6-0----6-0---6-0---6-0----|


   |-3--|  |-3--|  |-3-| |--3--|    |-3--|  |-3--|  |-3-| |--3--|
   S  S S  S  S S  S S S S  S  S    S  S S  S  S S  S S S S  S  S
|--------------------------------|--------------------------------|
|--------------------------------|--------------------------------|
|--------------------------------|--------------------------------|
|-----------------------------11-|-----------------------------11-|
|-10------13------10-------10----|-10------13------10-------10----|
|----12-0----12-0----9-0-9-------|----12-0----12-0----9-0-9-------|
|
|  |-3--|  |-3--|  |-3-| |--3--|    |-3--|  |-3--|  |-3-| |--3--|
|  S  S S  S  S S  S S S S  S  S    S  S S  S  S S  S S S S  S  S
|--------------------------------|--------------------------------|
|--------------------------------|--------------------------------|
|--------------------------------|--------------------------------|
|--------------------------------|--------------------------------|
|--7-------7-------7-----7-------|--7-------7-------7-----7-------|
|-----9-0-----9-0----9-0----9--0-|-----9-0-----9-0----9-0----9--0-|


   |-3--|  |-3--|  |-3--|  |--3--|    |-3--|  |-3--|  |-3--|  |--3--|
   S  S S  S  S S  S  S S  S  S  S    S  S S  S  S S  S  S S  S  S  S
|----------------------------------|-------------------------------------|
|----------------------------------|-------------------------------------|
|----------------------------------|-------------------------------------|
|-------------------------------14-|-------------------------------14----|
|-13------16------13---------13----|-13------16------13---------13-------|
|----15-0----15-0----12-0-12-------|----15-0----15-0----12-0-12----------|
|
|  |-3--|  |-3--|  |-3--|  |--3--|    |-3--|  |-3--|  |-3--|  |--3--|
|  S  S S  S  S S  S  S S  S  S  S    S  S S  S  S S  S  S S  S  S  S
|----------------------------------|-------------------------------------|
|----------------------------------|-------------------------------------|
|----------------------------------|-------------------------------------|
|----------------------------------|-------------------------------------|
|-10------10------10------10-------|-10------10------10------10----------|
|----12-0----12-0----12-0----12--0-|----12-0----12-0----12-0----12--0----|


  Q=96
  S S S S S S S S S S S S  S S S S   S S S S S S S S S S S S S S S S
|----------------------------------|---------------------------------|
|----------------------------------|---------------------------------|
|----------------------------------|-----------------------------4-5-|
|----------------------------------|---------5-2-------------3-6-----|
|-7-----------8-----------10-----8-|-7-----------5-4-5-4-1-0---------|
|---7-0-0-0-0---8-0-0-0-0----8-5---|---7-7-7-------------------------|
|
| S S S S S S S S S S S S  S S S S   S S S S S S S S S S S S S S S S
|----------------------------------|---------------------------------|
|----------------------------------|---------------------------------|
|----------------------------------|---------------------------------|
|----------------------------------|-9---------------------------6-7-|
|-2-----------3------------5-------|-7-------7-4-------------5-7-----|
|---3-0-0-0-0---3-0-0-0-0----7-0-0-|---0-0-0-----6-5-6-5-3-0---------|


  S S S S S S S S S S S S  S S S S   S S S S S S S S S S S S S S S S
|----------------------------------|------------------------------------|
|----------------------------------|------------------------------------|
|----------------------------------|------------------------------------|
|----------------------------------|-------------------------------6----|
|-7-----------8-----------10-----8-|-7-5-------5-7-5-------7-8-8-7------|
|---7-0-0-0-0---8-0-0-0-0----8-5---|-----8-7-8-------8-7-8--------------|
|
| S S S S S S S S S S S S  S S S S   S S S S S S S S S S S S S S S S
|----------------------------------|------------------------------------|
|----------------------------------|------------------------------------|
|----------------------------------|------------------------------------|
|----------------------------------|------------------------------------|
|-2-----------3------------5-------|-------------------------------7----|
|---3-0-0-0-0---3-0-0-0-0----7-0-0-|-5-3-1-0-1-3-5-3-1-0-3-5-6-6-0------|


   Q.            E    Q        Q          Q        Q        E    E    Q
|-24-----------------19-------20-------|-12-------16-------16---17---20-------|
|---------------22---------------------|--------------------------------------|
|--------------------------------------|--------------------------------------|
|--------------------------------------|--------------------------------------|
|--------------------------------------|--------------------------------------|
|--------------------------------------|--------------------------------------|
|
|  S  S S S S S  S S  S S S S  S S S S    S S S S  S S S S  S S  S S  S S S S
|--------------------------------------|--------------------------------------|
|--------------------------------------|--------------------------------------|
|--------------------------------------|----------------------------------4-5-|
|--------------------------------------|-----------5-2----------------3-6-----|
|--7-------------8------------10-----8-|--7------------5-4--5-4--1-0----------|
|-----7-0-0-0-0----8--0-0-0-0----8-5---|----7-7-7-----------------------------|
|
|  S  S S S S S  S S  S S S S  S S S S    S S S S  S S S S  S S  S S  S S S S
|--------------------------------------|--------------------------------------|
|--------------------------------------|--------------------------------------|
|--------------------------------------|--------------------------------------|
|--------------------------------------|--9-------------------------------6-7-|
|--2-------------3-------------5-------|--7--------7-4----------------5-7-----|
|-----3-0-0-0-0----3--0-0-0-0----7-0-0-|----0-0-0------6-5--6-5--3-0----------|


   E    E    Q.           E    E   E      S S S S  S  S S  S  S  S  S  S  E.
|--------------------------------------|------------------12-13-12-10----16-----------|
|--------------------------------------|-------------10-9-------------12--------------|
|-13---14---13------------9---10---9---|-10-9-7-9-10----------------------------------|
|--------------------------------------|----------------------------------------------|
|--------------------------------------|----------------------------------------------|
|--------------------------------------|----------------------------------------------|
|
|  S S  S S  S  S S S S S S S  S S S S    S S S S  S  S S  S  S  S  S  S  S  S S S
|--------------------------------------|----------------------------------------------|
|--------------------------------------|----------------------------------------------|
|--------------------------------------|----------------------------------------------|
|--------------------------------------|-----------------------------------------6----|
|--7--------------8-----------10-----8-|--7-5---------5-7--5-----------7--8--8-7------|
|----7--0-0--0--0---8-0-0-0-0----8-5---|------8-7--8----------8--7--8-----------------|
|
|  S S  S S  S  S S S S S S S  S S S S    S S S S  S  S S  S  S  S  S  S  S  S S S
|--------------------------------------|----------------------------------------------|
|--------------------------------------|----------------------------------------------|
|--------------------------------------|----------------------------------------------|
|--------------------------------------|----------------------------------------------|
|--2--------------3------------5-------|-----------------------------------------7----|
|----3--0-0--0--0---3-0-0-0-0----7-0-0-|--5-3-1-0--1--3-5--3--1--0--3--5--6--6-0------|


  Q=80
 4/4
   |--3--|  |--3--|  |--3--|  |--3--|    |--3--|  |--3--|  |--3--|  |--3--|
   S  S  S  S  S  S  S  S  S  S  S  S    S  S  S  S  S  S  S  S  S  S  S  S
|----------------------------12-17-12-|-21-22-------------------------------|
|-------------------------14----------|-------15----------------------------|
|----------14----------14-------------|----------18-------------------------|
|-------14----14----14----------------|-------------12----12-------------12-|
|-12-16----------16-------------------|----------------16----16-12-16-12----|
|-------------------------------------|-------------------------------------|
|
|  |--3--|  |--3--|  |--3--|  |--3--|    |--3--|  |--3--|  |--3--|  |--3--|
|  S  S  S  S  S  S  S  S  S  S  S  S    S  S  S  S  S  S  S  S  S  S  S  S
|-------------------------------------|-------------------------------------|
|-------------------------------------|-------------------------------------|
|-------------------------------------|-------------------------------------|
|--2--2--2--2--2--2--2--2--2--2--2--2-|--0--0--0--0--0--0--0--0--0--0--0--0-|
|--4--4--4--4--4--4--4--4--4--4--4--4-|--4--4--4--4--4--4--4--4--4--4--4--4-|
|--5--5--5--5--5--5--5--5--5--5--5--5-|--5--5--5--5--5--5--5--5--5--5--5--5-|


   |--3--|  |--3--|  |--3--|  |--3--|    |--3--|  |--3--|  |--3--|  |--3--|
   S  S  S  S  S  S  S  S  S  S  S  S    S  S  S  S  S  S  S  S  S  S  S  S
|-------------------------------------|---------------------------------------|
|----------------------------14-15-17-|-18-17-18-18-17------------------------|
|-------------------13-14-16----------|----------------19-17-16----------19---|
|----------12-14-16-------------------|-------------------------18----18------|
|-12-14-16----------------------------|----------------------------19---------|
|-------------------------------------|---------------------------------------|
|
|  |--3--|  |--3--|  |--3--|  |--3--|    |--3--|  |--3--|  |--3--|  |--3--|
|  S  S  S  S  S  S  S  S  S  S  S  S    S  S  S  S  S  S  S  S  S  S  S  S
|-------------------------------------|---------------------------------------|
|-------------------------------------|---------------------------------------|
|-------------------------------------|---------------------------------------|
|--7--7--7--7--7--7--7--7--7--7--7--7-|--7--7--7--7--7--7--7--7--7--7--7--7---|
|--7--7--7--7--7--7--7--7--7--7--7--7-|--8--8--8--8--8--8--8--8--8--8--8--8---|
|--5--5--5--5--5--5--5--5--5--5--5--5-|--5--5--5--5--5--5--5--5--5--5--5--5---|


   |--3--|  |--3--|  |--3--|  |--3--|    |--3--|  |--3--|  |--3--|  |--3--|
   S  S  S  S  S  S  S  S  S  S  S  S    S  S  S  S  S  S  S  S  S  S  S  S
|-24----------------------------------|-24----------------------------------|
|----24----24-------25-24-25-25-27-25-|----24----24-------25-24-25-25-27-25-|
|-------24----24----------------------|-------24----24----------------------|
|----------------21-------------------|----------------21-------------------|
|-------------------------------------|-------------------------------------|
|-------------------------------------|-------------------------------------|
|
|  |--3--|  |--3--|  |--3--|  |--3--|    |--3--|  |--3--|  |--3--|  |--3--|
|  S  S  S  S  S  S  S  S  S  S  S  S    S  S  S  S  S  S  S  S  S  S  S  S
|-------------------------------------|-------------------------------------|
|-------------------------------------|-------------------------------------|
|-------------------------------------|-------------------------------------|
|-------------------------------------|-------------------------------------|
|-10-10-10-10-10-10-10-10-10-10-10-10-|-10-10-10-10-10-10--9--9--9-10-10-10-|
|--7--7--7--0--0--0--7--7--7--8--8--8-|--7--7--7--0--0--0-11-11-11-12-12-12-|


   |--3--|  |--3--|  |--3--|  |--3--|    |--3--|  |--3--|  |--3--|  |--3--|
   S  S  S  S  S  S  S  S  S  S  S  S    S  S  S  S  S  S  S  S  S  S  S  S
|-------------------------------------|--------------------------------------|
|-------------------------------------|--------------------------------------|
|-------------------------------------|--------------------------------------|
|-------------------------------------|-17-17-17-16-16-16-14-14-14-16-16-16--|
|-12-12-12-15-15-15-14-14-14-15-15-15-|-15-15-15-15-15-15-15-15-15-15-15-15--|
|-14-14-14-14-14-14-14-14-14-14-14-14-|-14-14-14-14-14-14--------------------|


   |-3--|  |-3--| |-3-| |-3-|   |-3-| |-3-| |--3--|
   S  S S  S  S S S S S S S S   S S S S S S E  E  E
|-----------------------------|---------------------|
|-----------------------------|---------------------|
|-----------------------------|---------------------|
|-----------------------------|-------------------8-|
|-13------10------7-----4-----|-1-----4-----7-10-10-|
|----12-0----12-0---9-0---6-0-|---3-0---6-0-9-12----|


   |--3--|  |--3--|  |--3--|  |--3--|    |--3--|  |--3--|  |--3--|  |--3--|
   S  S  S  S  S  S  S  S  S  S  S  S    S  S  S  S  S  S  S  S  S  S  S  S
|-------------------------------------|-------------------------------------|
|-------------------------------------|-------------------------------------|
|-------------------------------------|-10-10-10-10-10-10-10-10-10-10-10-10-|
|--7--7--7--7--7--7--7--7--7--7--7--7-|--0--0--0--0--0--0--0--0--0--0--0--0-|
|--8--8--8--8--8--8--8--8--8--8--8--8-|--8--8--8--8--8--8--8--8--8--8--8--8-|
|-10-10-10-10-10-10-10-10-10-10-10-10-|-10-10-10-10-10-10-10-10-10-10-10-10-|


   |--3--|  |--3--|  |--3--|  |--3--|    |--3--|  |--3--|  |--3--|  |--3--|
   S  S  S  S  S  S  S  S  S  S  S  S    S  S  S  S  S  S  S  S  S  S  S  S
|-------------------------------------|-------------------------------------|
|-------------------------------------|-10-10-10-10-10-10-10-10-10-10-10-10-|
|-12-12-12-12-12-12-12-12-12-12-12-12-|-10-10-10-10-10-10-10-10-10-10-10-10-|
|--0--0--0--0--0--0--0--0--0--0--0--0-|--0--0--0--0--0--0--0--0--0--0--0--0-|
|--8--8--8--8--8--8--8--8--8--8--8--8-|--8--8--8--8--8--8--8--8--8--8--8--8-|
|-10-10-10-10-10-10-10-10-10-10-10-10-|-10-10-10-10-10-10-10-10-10-10-10-10-|


  |-3-| |-3-| |-3-| |-3-|   |-3-| |-3-| |-3-| |-3-|
  S S S S S S S S S S S S   S S S S S S S S S S S S
|-------------------------|-0-0-0-0-0-0-0-0-0-0-0-0--|
|-5-5-5-5-5-5-------------|-0-0-0-0-0-0-0-0-0-0-0-0--|
|-4-4-4-4-4-4-------------|-4-4-4-4-4-4-5-5-5-5-5-5--|
|-2-2-2-2-2-2-6-6-6-6-6-6-|-6-6-6-6-6-6-6-6-6-6-6-6--|
|-------------7-7-7-7-7-7-|-5-5-5-5-5-5-5-5-5-5-5-5--|
|-4-4-4-4-4-4-0-0-0-0-0-0-|-0-0-0-0-0-0-0-0-0-0-0-0--|


  |-3-| |-3-| |-3-| |-3-|   |-3-| |-3-| |-3-| |-3-|
  S S S S S S S S S S S S   S S S S S S S S S S S S
|-------------------------|-------------4-4-4-4-4-4-|
|-------------------------|-------------5-5-5-5-5-5-|
|-7-7-7-7-7-7-7-7-7-7-7-7-|-7-7-7-7-7-7-4-4-4-4-4-4-|
|-6-6-6-6-6-6-6-6-6-6-6-6-|-6-6-6-6-6-6-6-6-6-6-6-6-|
|-5-5-5-5-5-5-3-3-3-3-3-3-|-2-2-2-2-2-2-5-5-5-5-5-5-|
|-------------------------|-------------4-4-4-4-4-4-|


  Q  Q
|-5-------|
|-5-------|
|-5-------|
|-2-------|
|-0-------|
|---------|


  Q=80
             |-3-| |-3-|   |-3-| |-3-| |-3-| |-3-|
  S S S S Q  S S S S S S   S S S S S S S S S S S S
|------------------------|-------------------------|
|-6----------------------|-------------------------|
|-5-------5--------------|-4-2-1-------------------|
|-2-------7--6-7-6-0-2-3-|-------3-2-0-3-2-3-------|
|-0-0-0-0-0--------------|-------------------2-3-2-|
|------------------------|-------------------------|


  |-3-| |-3-| |-3-| |-3-|   |-3-| |-3-|
  S S S S S S S S S S S S   S S S S S S E E E E
|-------------------------|----------------------|
|-------------------------|----------------------|
|-------------------------|-------------------4--|
|-------------------------|-6-----------6-2-6-6--|
|-----2-5---7-8-7-5-------|---8-7-5-----2-2-7-5--|
|-0-4-----7---------7-5-4-|---------8-7-0-4-7----|


               |-3--| |-3-|   |-3-| |-3-|
   S S S S  Q  S  S S S S S   S S S S S S E E
|--8------------------------|-----------------|
|-10-------10---------------|-----------------|
|--9--------9---------------|-7-5-4-----------|
|--7-7-7-7-10--9-10-9-0-6-7-|-------7-6---6---|
|--0-0-0-0------------------|-----------8---7-|
|---------------------------|-----------------|
|
|              |-3--| |-3-|   |-3-| |-3-|
|  S S S S  Q  S  S S S S S   S S S S S S E E
|---------------------------|-----------------|
|--6------------------------|-----------------|
|--5--------5---------------|-4-2-1-----------|
|--2--------7--6--7-6-0-2-3-|-------3-2-0-2---|
|--0-0-0-0--0---------------|---------------2-|
|---------------------------|-----------------|


  |-3-| |-3-| |-3-| |-3-|   |-3-| |-3-|
  S S S S S S S S S S S S   S S S S S S E E E E
|-------------------------|-----------------------|
|-------------------------|-----------------3-6---|
|-------------------------|---------------4---7---|
|-------6---6-7-6---------|-9-7-6-------6---------|
|-----7---8-------8-7-5---|-------8-7-5-----------|
|-4-7-------------------7-|-----------------------|
|
| |-3-| |-3-| |-3-| |-3-|   |-3-| |-3-|
| S S S S S S S S S S S S   S S S S S S E E E E
|-------------------------|-----------------------|
|-------------------------|-----------------------|
|-------------------------|-------------------7---|
|-------------------------|-6-----------6-2-6-6---|
|-----2-7---7-8-7-5-------|---8-7-5-----2-2-7-5---|
|-0-4-----7---------7-5-4-|---------8-7-0-4-7-----|


               |-3--| |-3-|   |-3-| |-3-|
   S S S S  Q  S  S S S S S   S S S S S S E E
|--8------------------------|-----------------|
|-10-------10---------------|-----------------|
|--9--------9---------------|-7-5-4-----------|
|--7-7-7-7-10--9-10-9-0-6-7-|-------7-6---6---|
|--0-0-0-0------------------|-----------8---7-|
|---------------------------|-----------------|
|
|              |-3--| |-3-|   |-3-| |-3-|
|  S S S S  Q  S  S S S S S   S S S S S S E E
|---------------------------|-----------------|
|--6------------------------|-----------------|
|--5--------5---------------|-4-2-1-----------|
|--7--------7--6--7-6-0-2-3-|-------3-2-0-2---|
|--0-0-0-0--0---------------|---------------2-|
|---------------------------|-----------------|


  |-3-| |-3-| |-3-| |-3-|   |-3-| |-3-|
  S S S S S S S S S S S S   S S S S S S E E E E
|-------------------------|-----------------------|
|-------------------------|-----------------3-6---|
|-------------------------|---------------4---7---|
|-------6---6-7-6---------|-9-7-6-------6---------|
|-----7---7-------8-7-5---|-------8-7-5-----------|
|-4-7-------------------7-|-----------------------|
|
| |-3-| |-3-| |-3-| |-3-|   |-3-| |-3-|
| S S S S S S S S S S S S   S S S S S S E E E E
|-------------------------|-----------------------|
|-------------------------|-----------------------|
|-------------------------|-------------------4---|
|-------------------------|-6-----------6-2-6-6---|
|-----2-7---7-8-7-5-------|---8-7-5-----2-2-7-5---|
|-0-4-----7---------7-5-4-|---------8-7-0-4-7-4---|


  Q=108
 4/4
  S S S S S S S S S S S S S S S S   S S S S S S S S  S S S S S S S S
|---------------------------------|------------------------------------|
|---------------------------------|------------------------------------|
|---------------------------------|------------------------------------|
|---------------------------------|------------------------------------|
|---------------------------------|-1-----------1------------1---------|
|-5-3-1-0-1-3-5-3-1-0-1-3-5-3-1-0-|---3-1-0-1-3---3--1-0-1-3---3-1-0---|


  S S S S S S S S S S S S S S S S   S S S S S S S S  S S S S S S S S
|---------------------------------|-----------------------------------|
|---------------------------------|-----------------------------------|
|---------------------------------|-----------------------------------|
|---------------------------------|-----------------------------------|
|-4-----------4-----------4-------|-1-----------1------------1--------|
|---3-1-0-1-3---3-1-0-1-3---3-1-0-|---3-1-0-1-3---3--1-0-1-3---3-1-0--|


  S S S S S S S S S S S S S S S S   S S S S S S S S S S S S S S S S
|---------------------------------|---------------------------------|
|---------------------------------|---------------------------------|
|---------------------------------|---------------------------------|
|---------------------------------|---------------------------------|
|-4-1-0---0-1-4-1-0---0-1-4-1-0---|-5-----------5-----------5-------|
|-------3-----------3-----------3-|---6-5-3-5-6---6-5-3-5-3---6-5-3-|
|
| S S S S S S S S S S S S S S S S   S S S S S S S S S S S S S S S S
|---------------------------------|---------------------------------|
|---------------------------------|---------------------------------|
|---------------------------------|---------------------------------|
|---------------------------------|---------------------------------|
|---------------------------------|-1-----------1-----------1-------|
|-5-3-1-0-1-3-5-3-1-0-1-3-5-3-1-0-|---3-1-0-1-3---3-1-0-1-3---3-1-0-|


  S S S S S S S S S S S S S S S S   S S S S S S S S S S S S S S S S
|---------------------------------|---------------------------------|
|---------------------------------|---------------------------------|
|---------------------------------|---------------------------------|
|---------------------------------|---------------------------------|
|-7-----------7-----------7-------|-5-----------5-----------5-------|
|---6-5-3-5-6---6-5-3-5-3---6-5-3-|---6-5-3-5-6---6-5-3-5-3---6-5-3-|
|
| S S S S S S S S S S S S S S S S   S S S S S S S S S S S S S S S S
|---------------------------------|---------------------------------|
|---------------------------------|---------------------------------|
|---------------------------------|---------------------------------|
|---------------------------------|---------------------------------|
|-4-----------4-----------4-------|-1-----------1-----------1-------|
|---3-1-0-1-3---3-1-0-1-3---3-1-0-|---3-1-0-1-3---3-1-0-1-3---3-1-0-|


  S S S S S S S S S S S S S S S S   S S S S S S S S S S S S S S S S
|---------------------------------|---------------------------------|
|---------------------------------|---------------------------------|
|---------------------------------|---------------------------------|
|---------------------------------|---------------------------------|
|-4-1-0---0-1-4-1-0---0-1-4-1-0---|-5-----------5-----------5-------|
|-------3-----------3-----------3-|---6-5-3-5-6---6-5-3-5-3---6-5-3-|
|
| S S S S S S S S S S S S S S S S   S S S S S S S S S S S S S S S S
|---------------------------------|---------------------------------|
|---------------------------------|---------------------------------|
|---------------------------------|---------------------------------|
|---------------------------------|---------------------------------|
|---------------------------------|-1-----------1-----------1-------|
|-5-3-1-0-1-3-5-3-1-0-1-3-5-3-1-0-|---3-1-0-1-3---3-1-0-1-3---3-1-0-|


  S S S S S S S S S S S S S S S S   S S S S S S S S S S S S S S S S
|---------------------------------|---------------------------------|
|---------------------------------|---------------------------------|
|---------------------------------|---------------------------------|
|---------------------------------|---------------------------------|
|-7-----------7-----------7-------|-5-----------5-----------5-------|
|---6-5-3-5-6---6-5-3-5-3---6-5-3-|---6-5-3-5-6---6-5-3-5-3---6-5-3-|
|
| S S S S S S S S S S S S S S S S   S S S S S S S S S S S S S S S S
|---------------------------------|---------------------------------|
|---------------------------------|---------------------------------|
|---------------------------------|---------------------------------|
|---------------------------------|---------------------------------|
|-4-----------4-----------4-------|-1-----------1-----------1-------|
|---3-1-0-1-3---3-1-0-1-3---3-1-0-|---3-1-0-1-3---3-1-0-1-3---3-1-0-|


  Q=98
  S S S S S S S S S S S S  S S S S   S S S S S S S S S S S S S S S S
|----------------------------------|---------------------------------|
|----------------------------------|---------------------------------|
|----------------------------------|-----------------------------4-5-|
|----------------------------------|---------5-2-------------3-6-----|
|-7-----------8-----------10-----8-|-7-----------5-4-5-4-1-0---------|
|---7-0-0-0-0---8-0-0-0-0----8-5---|---7-7-7-------------------------|
|
| S S S S S S S S S S S S  S S S S   S S S S S S S S S S S S S S S S
|----------------------------------|---------------------------------|
|----------------------------------|---------------------------------|
|----------------------------------|---------------------------------|
|----------------------------------|-9---------------------------6-7-|
|-2-----------3------------5-------|-7-------7-4-------------5-7-----|
|---3-0-0-0-0---3-0-0-0-0----7-0-0-|---0-0-0-----6-5-6-5-3-0---------|


  S S S S S S S S S S S S  S S S S   S S S S S S S S S S S S S S S S
|----------------------------------|------------------------------------|
|----------------------------------|------------------------------------|
|----------------------------------|------------------------------------|
|----------------------------------|-------------------------------6----|
|-7-----------8-----------10-----8-|-7-5-------5-7-5-------7-8-8-7------|
|---7-0-0-0-0---8-0-0-0-0----8-5---|-----8-7-8-------8-7-8--------------|
|
| S S S S S S S S S S S S  S S S S   S S S S S S S S S S S S S S S S
|----------------------------------|------------------------------------|
|----------------------------------|------------------------------------|
|----------------------------------|------------------------------------|
|----------------------------------|------------------------------------|
|-2-----------3------------5-------|-------------------------------7----|
|---3-0-0-0-0---3-0-0-0-0----7-0-0-|-5-3-1-0-1-3-5-3-1-0-3-5-6-6-0------|


  Q=98
   Q.            E    Q        Q          Q        Q        E    E    Q
|-24-----------------19-------20-------|-12-------16-------16---17---20-------|
|---------------22---------------------|--------------------------------------|
|--------------------------------------|--------------------------------------|
|--------------------------------------|--------------------------------------|
|--------------------------------------|--------------------------------------|
|--------------------------------------|--------------------------------------|
|
|  S  S S S S S  S S  S S S S  S S S S    S S S S  S S S S  S S  S S  S S S S
|--------------------------------------|--------------------------------------|
|--------------------------------------|--------------------------------------|
|--------------------------------------|----------------------------------4-5-|
|--------------------------------------|-----------5-2----------------3-6-----|
|--7-------------8------------10-----8-|--7------------5-4--5-4--1-0----------|
|-----7-0-0-0-0----8--0-0-0-0----8-5---|----7-7-7-----------------------------|
|
|  S  S S S S S  S S  S S S S  S S S S    S S S S  S S S S  S S  S S  S S S S
|--------------------------------------|--------------------------------------|
|--------------------------------------|--------------------------------------|
|--------------------------------------|--------------------------------------|
|--------------------------------------|--9-------------------------------6-7-|
|--2-------------3-------------5-------|--7--------7-4----------------5-7-----|
|-----3-0-0-0-0----3--0-0-0-0----7-0-0-|----0-0-0------6-5--6-5--3-0----------|


   E    E    Q.           E    E   E      S S S S  S  S S  S  S  S  S  S  E.
|--------------------------------------|------------------12-13-12-10----16-----------|
|--------------------------------------|-------------10-9-------------12--------------|
|-13---14---13------------9---10---9---|-10-9-7-9-10----------------------------------|
|--------------------------------------|----------------------------------------------|
|--------------------------------------|----------------------------------------------|
|--------------------------------------|----------------------------------------------|
|
|  S S  S S  S  S S S S S S S  S S S S    S S S S  S  S S  S  S  S  S  S  S  S S S
|--------------------------------------|----------------------------------------------|
|--------------------------------------|----------------------------------------------|
|--------------------------------------|----------------------------------------------|
|--------------------------------------|-----------------------------------------6----|
|--7--------------8-----------10-----8-|--7-5---------5-7--5-----------7--8--8-7------|
|----7--0-0--0--0---8-0-0-0-0----8-5---|------8-7--8----------8--7--8-----------------|
|
|  S S  S S  S  S S S S S S S  S S S S    S S S S  S  S S  S  S  S  S  S  S  S S S
|--------------------------------------|----------------------------------------------|
|--------------------------------------|----------------------------------------------|
|--------------------------------------|----------------------------------------------|
|--------------------------------------|----------------------------------------------|
|--2--------------3------------5-------|-----------------------------------------7----|
|----3--0-0--0--0---3-0-0-0-0----7-0-0-|--5-3-1-0--1--3-5--3--1--0--3--5--6--6-0------|


  Q=84
 4/4
  |-3-| |-3-| |-3-| |-3-|   |-3-| |-3-| |-3-| |-3-|
  S S S S S S S S S S S S   S S S S S S S S S S S S
|-------------------------|-------------------------|
|-------------------------|-------------------------|
|-------------------------|-------------------------|
|-2-2-2-2-2-2-2-2-2-2-2-2-|-0-0-0-0-0-0-0-0-0-0-0-0-|
|-4-4-4-4-4-4-4-4-4-4-4-4-|-4-4-4-4-4-4-4-4-4-4-4-4-|
|-5-5-5-5-5-5-5-5-5-5-5-5-|-5-5-5-5-5-5-5-5-5-5-5-5-|


  |-3-| |-3-| |-3-| |-3-|   |-3-| |-3-| |-3-| |-3-|
  S S S S S S S S S S S S   S S S S S S S S S S S S
|-------------------------|---------------------------|
|-------------------------|---------------------------|
|-------------------------|---------------------------|
|-7-7-7-7-7-7-7-7-7-7-7-7-|-7-7-7-7-7-7-7-7-7-7-7-7---|
|-7-7-7-7-7-7-7-7-7-7-7-7-|-8-8-8-8-8-8-8-8-8-8-8-8---|
|-5-5-5-5-5-5-5-5-5-5-5-5-|-5-5-5-5-5-5-5-5-5-5-5-5---|


   |--3--|  |--3--|  |--3--|  |--3--|    |--3--|  |--3--|  |--3--|  |--3--|
   S  S  S  S  S  S  S  S  S  S  S  S    S  S  S  S  S  S  S  S  S  S  S  S
|-------------------------------------|-------------------------------------|
|-------------------------------------|-------------------------------------|
|-------------------------------------|-------------------------------------|
|-------------------------------------|-------------------------------------|
|-10-10-10-10-10-10-10-10-10-10-10-10-|-10-10-10-10-10-10--9--9--9-10-10-10-|
|--7--7--7--0--0--0--7--7--7--8--8--8-|--7--7--7--0--0--0-11-11-11-12-12-12-|


   |--3--|  |--3--|  |--3--|  |--3--|    |--3--|  |--3--|  |--3--|  |--3--|
   S  S  S  S  S  S  S  S  S  S  S  S    S  S  S  S  S  S  S  S  S  S  S  S
|-------------------------------------|--------------------------------------|
|-------------------------------------|--------------------------------------|
|-------------------------------------|--------------------------------------|
|-------------------------------------|-17-17-17-16-16-16-14-14-14-16-16-16--|
|-12-12-12-15-15-15-14-14-14-15-15-15-|-15-15-15-15-15-15-15-15-15-15-15-15--|
|-14-14-14-14-14-14-14-14-14-14-14-14-|-14-14-14-14-14-14--------------------|


            |--3--|
  H      Q  E  E  E
|------|------------|
|------|------------|
|------|------------|
|------|----------8-|
|------|----7-10-10-|
|------|----9-12----|


   |--3--|  |--3--|  |--3--|  |--3--|    |--3--|  |--3--|  |--3--|  |--3--|
   S  S  S  S  S  S  S  S  S  S  S  S    S  S  S  S  S  S  S  S  S  S  S  S
|-------------------------------------|-------------------------------------|
|-------------------------------------|-------------------------------------|
|-------------------------------------|-10-10-10-10-10-10-10-10-10-10-10-10-|
|--7--7--7--7--7--7--7--7--7--7--7--7-|--0--0--0--0--0--0--0--0--0--0--0--0-|
|--8--8--8--8--8--8--8--8--8--8--8--8-|--8--8--8--8--8--8--8--8--8--8--8--8-|
|-10-10-10-10-10-10-10-10-10-10-10-10-|-10-10-10-10-10-10-10-10-10-10-10-10-|


   |--3--|  |--3--|  |--3--|  |--3--|    |--3--|  |--3--|  |--3--|  |--3--|
   S  S  S  S  S  S  S  S  S  S  S  S    S  S  S  S  S  S  S  S  S  S  S  S
|-------------------------------------|-------------------------------------|
|-------------------------------------|-10-10-10-10-10-10-10-10-10-10-10-10-|
|-12-12-12-12-12-12-12-12-12-12-12-12-|-10-10-10-10-10-10-10-10-10-10-10-10-|
|--0--0--0--0--0--0--0--0--0--0--0--0-|--0--0--0--0--0--0--0--0--0--0--0--0-|
|--8--8--8--8--8--8--8--8--8--8--8--8-|--8--8--8--8--8--8--8--8--8--8--8--8-|
|-10-10-10-10-10-10-10-10-10-10-10-10-|-10-10-10-10-10-10-10-10-10-10-10-10-|


  |-3-| |-3-| |-3-| |-3-|   |-3-| |-3-| |-3-| |-3-|
  S S S S S S S S S S S S   S S S S S S S S S S S S
|-------------------------|-0-0-0-0-0-0-0-0-0-0-0-0--|
|-5-5-5-5-5-5-------------|-0-0-0-0-0-0-0-0-0-0-0-0--|
|-4-4-4-4-4-4-------------|-4-4-4-4-4-4-5-5-5-5-5-5--|
|-2-2-2-2-2-2-6-6-6-6-6-6-|-6-6-6-6-6-6-6-6-6-6-6-6--|
|-------------7-7-7-7-7-7-|-5-5-5-5-5-5-5-5-5-5-5-5--|
|-4-4-4-4-4-4-0-0-0-0-0-0-|-0-0-0-0-0-0-0-0-0-0-0-0--|


  |-3-| |-3-| |-3-| |-3-|   |-3-| |-3-| |-3-| |-3-|
  S S S S S S S S S S S S   S S S S S S S S S S S S
|-------------------------|-------------4-4-4-4-4-4-|
|-------------------------|-------------5-5-5-5-5-5-|
|-7-7-7-7-7-7-7-7-7-7-7-7-|-7-7-7-7-7-7-4-4-4-4-4-4-|
|-6-6-6-6-6-6-6-6-6-6-6-6-|-6-6-6-6-6-6-6-6-6-6-6-6-|
|-5-5-5-5-5-5-3-3-3-3-3-3-|-2-2-2-2-2-2-5-5-5-5-5-5-|
|-------------------------|-------------4-4-4-4-4-4-|


  E E E E E E E E   E E E E E E E E   E E E E E E E E   E E E E E E E E
|---------0-------|---------0-------|---------4-------|-----------0-----|
|-------1---0-----|-------1---0-----|-------1-0-------|---------0-----3-|
|-----2-2---------|-----2-------2---|-----2-----5-----|-------1-----5---|
|---2---------7---|---2-----------0-|---2---------6---|-----0-----------|
|-0-------------7-|-2---------------|-3---------------|---2-------------|
|---------4-------|---------1-------|---------------7-|-0-------4-------|


  Gtr I
   Q.     E  E  E  E      Q.     E  E  E  E  E
|-12--------12-10-13---|-12--------17----------|
|-10--------13-12------|-12-----------17-------|
|-----------------14---|-----------17----16-17-|
|----------------------|--------------18-14-19-|
|----------------------|-----------------------|
|----------------------|-----------------------|
|
|  E  E E E  E  E  E E    E  E E E  E  E  E  E
|--0-------------------|--0--------------------|
|-----0--------------1-|-----0---------------1-|
|-------2----------2---|-------1----------2----|
|---------2-----2------|---------0-----2-------|
|--0---------0---------|------------2----------|
|----------------------|--4--------------------|


   Q    Q    Q   E  E    Q    E E  E  E  E  E
|-16------------------|-13---12---16-17-19-20-|
|-12---12---13-----15-|-12---12---17-17-21-22-|
|------13---14-----16-|-----------------------|
|---------------------|-----------------------|
|---------------------|-----------------------|
|---------------------|-----------------------|
|
|  E E  E E  E E E  E    E E  E E  E  E  E  E
|--4------------------|----0------------------|
|----1--------------1-|--0----0---------------|
|-------1--------2----|---------2--1----------|
|---------0----2------|---------------2-------|
|------------3--------|------------------2----|
|--0------------------|--1---------0--------0-|


          |--3--|
   Q   E  S  S  S  E  E  E      E E  E E  Q    Q
|-17--------------16---------|-----------13---12---|
|-17--------------17---------|-----------15---12---|
|--------------16----17-19---|-16---16-------------|
|--------14-18----------14---|-18---14-------------|
|----------------------------|---------------------|
|----------------------------|---------------------|
|
|  Q   Q           Q     Q      H         Q    Q
|----------------------------|---------------------|
|----------------------------|--5------------------|
|--2---4-----------5-----4---|-----------------9---|
|----------------------------|-----------12--------|
|----------------------------|---------------------|
|--5---7-----------8-----7---|--0---------1----0---|
|
|  E E E  E        E  E  E E    E E  E E  E E  E E
|------------------0---------|------------0--------|
|---------1-----------0------|---------1----0------|
|------2--2------------------|-------2---------2---|
|----2-------------------7---|----2--------------0-|
|--0-----------------------7-|--2------------------|
|------------------4---------|------------1--------|


   Q   E  Q    Q    E    Q.     E  Q.
|-12-----16---16------|----------------------|
|-13-----12---15------|----------------------|
|------------------13-|-16--------13---------|
|------------------14-|-12---------9---------|
|---------------------|----------------------|
|---------------------|----------------------|
|
|  H        Q    Q       Q    Q    Q     Q
|---------------------|--5----7----8----10---|
|-----------0---------|----------------------|
|--5-------------9----|----------------------|
|---------------------|----------------------|
|---------------------|----------------------|
|--5--------4----0----|--5----7----8----10---|
|
|  E E E  E E  E E  E    E  E E E  E  E  E E
|-----------4---------|---------------0------|
|---------1-0---------|------------0-------3-|
|------2-------5------|---------1--------5---|
|----2-----------6----|-------0--------------|
|--3------------------|-----2----------------|
|-------------------7-|--0---------4---------|


  Gtr I
   Q.     E  E  E  E      Q.     E  E  E  E  E
|-12--------12-10-13---|-12--------17----------|
|-10--------13-12------|-12-----------17-------|
|-----------------14---|-----------17----16-17-|
|----------------------|--------------18-14-19-|
|----------------------|-----------------------|
|----------------------|-----------------------|
|
|  H
|----------------------|-----------------------|
|-10-------------------|-----------------------|
|--5-------------------|-----------------------|
|----------------------|-----------------------|
|--0-------------------|-----------------------|
|----------------------|-----------------------|
|
|  E  E E E  E  E  E E    E  E E E  E  E  E  E
|--0-------------------|--0--------------------|
|-----0--------------1-|-----0---------------1-|
|-------2----------2---|-------1----------2----|
|---------2-----2------|---------0-----2-------|
|--0---------0---------|------------2----------|
|----------------------|--4--------------------|


   Q     Q    Q    E  E    Q    E E  E  E  E  E
|-16--------------------|-13---12---16-17-19-20-|
|-12----12---13------15-|-12---12---17-17-21-22-|
|-------13---14------16-|-----------------------|
|-----------------------|-----------------------|
|-----------------------|-----------------------|
|-----------------------|-----------------------|
|
|  Q.      E  Q.      E    H
|-24---------20---------|-25--------------------|
|-----------------------|-----------------------|
|-----------------------|-----------------------|
|-----------------------|-----------------------|
|-----------------------|-----------------------|
|-----------------------|-----------------------|
|
|  E  E  E E  E  E E  E    E E  E E  E  E  E  E
|--4--------------------|----0------------------|
|-----1---------------1-|--0----0---------------|
|--------1---------2----|---------2--1----------|
|----------0-----2------|---------------2-------|
|-------------3---------|------------------2----|
|--0--------------------|--1---------0--------0-|


            |--3--|
   Q.       S  S  S  E  E  E      E E  E E  Q    Q
|-17---------------------------|-----------13---12---|
|-17----------------17---------|-----------15---12---|
|----------------16----17------|-16---16-------------|
|----------14-18----------14---|-18---14-------------|
|------------------------------|---------------------|
|------------------------------|---------------------|
|
|  Q     Q           Q     Q      H         Q    Q
|------------------------------|---------------------|
|------------------------------|-17------------------|
|-14----16----------17----16---|-----------------9---|
|------------------------------|-----------12--------|
|------------------------------|---------------------|
|--5-----7-----------8-----7---|--0---------1----0---|
|
|  E  E  E  E        E  E  E E    E E  E E  E E  E E
|--------------------0---------|------------0--------|
|-----------1-----------0------|---------1----0------|
|--------2--2--------------2---|-------2---------2---|
|-----2----------------------2-|----2--------------0-|
|--0---------------------------|--2------------------|
|--------------------4---------|------------1--------|


   Q   E  Q    Q    E    Q.     E  Q.
|-12-----16---16------|----------------------|
|-13-----12---15------|----------------------|
|------------------13-|-16--------13---------|
|------------------14-|-12---------9---------|
|---------------------|----------------------|
|---------------------|----------------------|
|
|  H        Q    Q       Q    Q    Q     Q
|---------------------|--5----7----8----10---|
|-----------0---------|----------------------|
|--5-------------9----|----------------------|
|---------------------|----------------------|
|---------------------|----------------------|
|--5--------4----0----|--5----7----8----10---|
|
|  E E E  E E  E E  E    E  E E E  E  E  E E
|-----------4---------|---------------0------|
|---------1-0---------|------------0-------3-|
|------2-------5------|---------1--------5---|
|----2-----------6----|-------0--------------|
|--3------------------|-----2----------------|
|-------------------7-|--0---------4---------|


   Q
|--8----|
|-10----|
|-------|
|-------|
|-------|
|-------|
|
| Gtr I
|  W
|-------|
|-10----|
|--9----|
|-------|
|-------|
|-------|
|
|  W
|--0----|
|--1----|
|--2----|
|--2----|
|--0----|
|-------|



Duration Legend
---------------
W - whole; H - half; Q - quarter; E - 8th; S - 16th; T - 32nd; X - 64th; a - acciaccatura
+ - note tied to previous; . - note dotted; .. - note double dotted
Uncapitalized letters represent notes that are staccato (1/2 duration)
Irregular groupings are notated above the duration line
Duration letters will always appear directly above the note/fret number it represents the
duration for.  Duration letters with no fret number below them represent rests.  Multi-
bar rests are notated in the form Wxn, where n is the number of bars to rest for.  Low
melody durations appear below the staff

Tablature Legend
----------------
 h   - hammer-on
 p   - pull-off
 b   - bend
 pb  - pre-bend
 r   - bend release (if no number after the r, then release immediately)
 /\  - slide into or out of (from/to "nowhere")
 s   - legato slide
 S   - shift slide
<n> - natural harmonic
[n]  - artificial harmonic
n(n) - tapped harmonic
 ~   - vibrato
 tr  - trill
 T   - tap
 TP  - trem. picking
 PM  - palm muting
\n/  - tremolo bar dip; n = amount to dip
 \n  - tremolo bar down
 n/  - tremolo bar up
/n\  - tremolo bar inverted dip
 =   - hold bend; also acts as connecting device for hammers/pulls
 <> - volume swell (louder/softer)
 x   - on rhythm slash represents muted slash
 o   - on rhythm slash represents single note slash

Misc Legend
-----------
 |  - bar
||  - double bar
||o - repeat start
o|| - repeat end
*|  - double bar (ending)
 :  - bar (freetime)
 $  - Segno
 &  - Coda
Tempo markers - <E/E./Q/Q./H/H.> = BPM(8/16=s8/s16), where s8 = swing 8ths, s16 = swing 16ths


** Generated using Power Tab Editor by Brad Larsen: The Official Power Tab Web Site