#----------------------------------PLEASE NOTE---------------------------------#
#This file is the author's own work and represents their interpretation of the #
#song. You may only use this file for private study, scholarship, or research. #
#------------------------------------------------------------------------------#

THE BLACK SCHOOL
As recorded by Blood Vacuum
(From the 2005 Album TEMPORAL STORM I)

Transcribed by MC

Words and Music by M.Calestino
Arranged by MC


Gtr I (D G C F A D) - 'rhythm'
Gtr II (D G C F A D) - 'Untitled'

  Q=136
 4/4
  Gtr II
   Q  S  S  S  S  S  S  S  S  S  S  S  S    S  S  S  S  S  S  S  S  S  S  S  S  S  S  S  S
|--3-------------------------------------|-------------------------------------------------|
|--3-------------------------------------|--------------------------8--8--8--8-11-11-11-11-|
|--3--3--3--3--3--3--3--3--3--3--3--3--3-|--------------7--7--7--7-------------------------|
|--5--5--5--5--5--5--5--5--5--5--5--5--5-|--8--8--8--8-------------------------------------|
|----------------------------------------|-------------------------------------------------|
|----------------------------------------|-------------------------------------------------|
|
| Gtr I
|  Q  S  S  S  S  S  S  S  S  S  S  S  S    S  S  S  S  S  S  S  S  S  S  S  S  S  S  S  S
|----------------------------------------|-------------------------------------------------|
|-11-------------------------------------|-------------------------------------------------|
|-12-------------------------------------|--------------------------------------8--8--8--8-|
|-12-------------------------------------|-------------------------12-12-12-12-------------|
|-10-10-10-10-10-10-10-10-10-10-10-10-10-|-10-10-10-10-13-13-13-13-------------------------|
|----------------------------------------|-------------------------------------------------|


   Q  S  S  S  S  S  S  S  S  S  S  S  S   Q S S S S  Q  S S S S
|--8-------------------------------------|--------------------------|
|--8-------------------------------------|--------------10p8p7------|
|--8--8--8--8--8--8--8--8--8--8--8--8--8-|-5-------------------7----|
|-10-10-10-10-10-10-10-10-10-10-10-10-10-|-7-7-7-7-7--7-------------|
|----------------------------------------|------------9-------------|
|----------------------------------------|--------------------------|
|
|  Q  S  S  S  S  S  S  S  S  S  S  S  S   Q S S S S  Q  S S S S
|----------------------------------------|--------------------------|
|--4-------------------------------------|-7---------10-------------|
|--5-------------------------------------|-7----------7-------------|
|--5-------------------------------------|-0-0-0-0-0--0-10p8p7------|
|--3--3--3--3--3--3--3--3--3--3--3--3--3-|-0-------------------9----|
|----------------------------------------|--------------------------|


  Gtr II
   Q   S  S  S  S  S  S  S  S  S  S  S  S    S  S  S  S  S  S  S  S  S  S  S  S  S  S  S  S
|--3--------------------------------------|-------------------------------------------------|
|--3--------------------------------------|--------------------------8--8--8--8-11-11-11-11-|
|--3---3--3--3--3--3--3--3--3--3--3--3--3-|--------------7--7--7--7-------------------------|
|--5---5--5--5--5--5--5--5--5--5--5--5--5-|--8--8--8--8-------------------------------------|
|-----------------------------------------|-------------------------------------------------|
|-----------------------------------------|-------------------------------------------------|
|
| Gtr I
|  Q   S  S  S  S  S  S  S  S  S  S  S  S    S  S  S  S  S  S  S  S  S  S  S  S  S  S  S  S
|-----------------------------------------|-------------------------------------------------|
|-11--------------------------------------|-------------------------------------------------|
|-12--------------------------------------|--------------------------------------8--8--8--8-|
|-12--------------------------------------|-------------------------12-12-12-12-------------|
|-10--10-10-10-10-10-10-10-10-10-10-10-10-|-10-10-10-10-13-13-13-13-------------------------|
|-----------------------------------------|-------------------------------------------------|


   Q   S  S  S  S  S  S  S  S  S  S  S  S   Q  S S S S  Q   E E E E
|--8--------------------------------------|-------------------------|
|--8--------------------------------------|----------------10-8-7---|
|--8---8--8--8--8--8--8--8--8--8--8--8--8-|-5---------------------7-|
|-10--10-10-10-10-10-10-10-10-10-10-10-10-|-7--7-7-7-7--7-----------|
|-----------------------------------------|-------------9-----------|
|-----------------------------------------|-------------------------|
|
|  Q   S  S  S  S  S  S  S  S  S  S  S  S   Q  S S S S  Q   E E E E
|-----------------------------------------|-------------------------|
|--4--------------------------------------|-7----------10-----------|
|--5--------------------------------------|-7-----------7-----------|
|--5--------------------------------------|-0--0-0-0-0--0--10-8-7---|
|--3---3--3--3--3--3--3--3--3--3--3--3--3-|-0---------------------9-|
|-----------------------------------------|-------------------------|


  Q=90
  Gtr I
  H   Q   Q    H     H      H   Q  Q      H     H
|------------|------------|------------|------------|
|------------|-------3----|------------|------------|
|------------|-2-----2----|------------|------------|
|-5---7---8--|-3-----0----|-5---7--8---|-10\----3---|
|-5---7---8--|-3-----0----|-5---7--8---|-10\----3---|
|-3---5---6--|-1----------|-3---5--6---|--8\----1---|


  Gtr II
           ~~     ~~~                      ~~~
  E E E E  E E E  E    E E E  E E  E  S S  E
|--------------------|------------------------|
|--------------------|------------------------|
|--------------------|----------2-(2)-5p3-[2]-|
|-------5-/7------8--|-----3-/5----3----------|
|---5-6------9-5-(5)-|---3--------------------|
|-3------------------|-1----------------------|
|
| H        Q   Q       H        H
|--------------------|------------------------|
|--------------------|----------3-------------|
|--------------------|-2--------2-------------|
|-5--------7---8-----|-3--------0-------------|
|-5--------7---8-----|-3--------0-------------|
|-3--------5---6-----|-1----------------------|


           ~~     ~~~
  E E E E  E E E  E     E  E E  E E  E   S   S   S
|--------------------|------------------------------|
|--------------------|--------------------------<7>-|
|--------------------|------------2-(2)-----<7>-----|
|-------5-/7------8--|-------3-/5----3--<7>---------|
|---5-6------9-5-(5)-|-----3------------------------|
|-3------------------|--1---------------------------|
|
| H        Q   Q        H         H
|--------------------|------------------------------|
|--------------------|------------------------------|
|--------------------|------------------------------|
|-5--------7---8-----|-10\--------3-----------------|
|-5--------7---8-----|-10\--------3-----------------|
|-3--------5---6-----|--8\--------1-----------------|


  Gtr I
             ~                 ~          ~
  E S S S  S E S S E S S E   E E E E E  E Q
|--------------------------|-----------------|
|--------------------------|-----------------|
|--------------------------|-3---------------|
|-------5-/4-5-4-7-4---5---|-5-------5-/4-5--|
|-5-----6-/5-6-------6---6-|---5-----6-/5-6--|
|-3-3-3--------------------|-----3h6---------|
|
| Gtr II
|                              ~          ~
| E S S S  S E S S E S S E   E E E E E  E Q
|-3------------------------|-----------------|
|-3------------------------|-3-------4--3-4--|
|-3-----3--2-3-----5-----2-|-3-------0--0-5--|
|-5-0-0-0--0-0---4-----1---|---5-------------|
|--------------5-----3-----|-------5---------|
|--------------------------|-----6-----------|


  S S S S  S S  S  S S  S  S S  S  S S  S
|---------11p8-------8---------------------|
|-------7------10------10------10----------|
|-----7-----------11------11-8----11-8-----|
|---7----------------------------------10--|
|-9----------------------------------------|
|------------------------------------------|
|
| S S S S  S S  S  S S  S  S S  S  S S  S
|-------5--8p5-------5---------------------|
|-----7---------7-------7-------7----------|
|---7--------------8-------8-5-----8-5-----|
|-7-------------------------------------7--|
|------------------------------------------|
|------------------------------------------|


             ~                 ~          ~
  E S S S  S E S S E S S E   E E E E E  E Q
|--------------------------|-----------------|
|--------------------------|-----------------|
|--------------------------|-3---------------|
|-------5-/4-5-4-7-4---5---|-5-------5-/4-5--|
|-5-----6-/5-6-------6---6-|---5-----6-/5-6--|
|-3-3-3--------------------|-----3h6---------|
|
|                              ~          ~
| E S S S  S E S S E S S E   E E E E E  E Q
|-3------------------------|-----------------|
|-3------------------------|-3-------4--3-4--|
|-3-----3--2-3-----5-----2-|-3-------0--0-5--|
|-5-0-0-0--0-0---4-----1---|---5-------------|
|--------------5-----3-----|-------5---------|
|--------------------------|-----6-----------|


  S S S S  S S  S  S S  S  S S  S  S S  S
|---------11p8-------8---------------------|
|-------7------10------10------10----------|
|-----7-----------11------11-8----11-8-----|
|---7----------------------------------10--|
|-9----------------------------------------|
|------------------------------------------|
|
| S S S S  S S  S  S S  S  S S  S  S S  S
|-------5--8p5-------5---------------------|
|-----7---------7-------7-------7----------|
|---7--------------8-------8-5-----8-5-----|
|-7-------------------------------------7--|
|------------------------------------------|
|------------------------------------------|


  S S S S S S S S   S S S S S S S S   S S S S S S S S   S S S S S S S S
|-----------------|-----------------|-----------------|-----------------|
|-----------------|-----------------|-----------------|-----------------|
|-----------------|-----------------|-----------------|-----------------|
|-----------------|-----------------|-----------------|-----------------|
|---6-5-6---6-5-6-|---6-5-6---6-5-6-|---5-3-5---5-3-5-|---5-3-5---5-3-5-|
|-3-------3-------|-3-------3-------|-2-------2-------|-2-------2-------|


  S S S S S S S S   S S S S S S S S   S S S S S S S S   S S S S S S S S
|-----------------|-----------------|-----------------|-----------------|
|-----------------|-----------------|-----------------|-----------------|
|-----------------|-----------------|-----------------|-----------------|
|-----------------|-----------------|-----------------|-----------------|
|---6-5-6---6-5-6-|---6-5-6---6-5-6-|---5-3-5---5-3-5-|---5-3-5---5-3-5-|
|-3-------3-------|-3-------3-------|-1-------1-------|-2-------2-------|



Duration Legend
---------------
W - whole; H - half; Q - quarter; E - 8th; S - 16th; T - 32nd; X - 64th; a - acciaccatura
+ - note tied to previous; . - note dotted; .. - note double dotted
Uncapitalized letters represent notes that are staccato (1/2 duration)
Irregular groupings are notated above the duration line
Duration letters will always appear directly above the note/fret number it represents the
duration for.  Duration letters with no fret number below them represent rests.  Multi-
bar rests are notated in the form Wxn, where n is the number of bars to rest for.  Low
melody durations appear below the staff

Tablature Legend
----------------
 h   - hammer-on
 p   - pull-off
 b   - bend
 pb  - pre-bend
 r   - bend release (if no number after the r, then release immediately)
 /\  - slide into or out of (from/to "nowhere")
 s   - legato slide
 S   - shift slide
<n> - natural harmonic
[n]  - artificial harmonic
n(n) - tapped harmonic
 ~   - vibrato
 tr  - trill
 T   - tap
 TP  - trem. picking
 PM  - palm muting
\n/  - tremolo bar dip; n = amount to dip
 \n  - tremolo bar down
 n/  - tremolo bar up
/n\  - tremolo bar inverted dip
 =   - hold bend; also acts as connecting device for hammers/pulls
 <> - volume swell (louder/softer)
 x   - on rhythm slash represents muted slash
 o   - on rhythm slash represents single note slash

Misc Legend
-----------
 |  - bar
||  - double bar
||o - repeat start
o|| - repeat end
*|  - double bar (ending)
 :  - bar (freetime)
 $  - Segno
 &  - Coda
Tempo markers - <E/E./Q/Q./H/H.> = BPM(8/16=s8/s16), where s8 = swing 8ths, s16 = swing 16ths


** Generated using Power Tab Editor by Brad Larsen: The Official Power Tab Web Site