#----------------------------------PLEASE NOTE---------------------------------#
#This file is the author's own work and represents their interpretation of the #
#song. You may only use this file for private study, scholarship, or research. #
#------------------------------------------------------------------------------#

A FAMILIAR STARE
As recorded by Blood Vacuum
(From the 2007 Album HANDS ACROSS THE VOID)


Music by M. Calestino
Arranged by M.Calestino


Gtr I (E A D G B E) - 'Untitled'
Gtr II (E A D G B E) - 'Untitled'
Gtr III (E A D G B E) - 'Untitled'

  Q=96
 4/4
  Gtr II
   <                <                <
   Q   Q   Q  Q     Q  Q  Q  Q       Q  Q  Q  E  E Q  Q   Q   Q
|-14--12--10--9--|-10--9--7--5----|-10--9--7--5--7-9-----19--17--|
|-19-------------|----------------|------------------------------|
|----------------|----------------|-------------------9----------|
|----------------|----------------|------------------------------|
|----------------|----------------|------------------------------|
|----------------|----------------|------------------------------|
|
| Gtr III
|  Q   Q   Q  Q     Q  Q  Q  H       Q  Q  Q  E  E Q  Q   Q   Q
|----------------|----------------|----------------0--7--19--17--|
|----------------|----------------|------------------------------|
|-11---9---7--6--|--7--6--4--2----|--7--6--4--2--4-6--9--21------|
|----------------|----------------|------------------------------|
|-12--11---9--7--|--9--7--5--4----|--9--7--5--4--5-7--7--19------|
|----------------|----------------|----------------0-------------|
|
| Gtr I
|  <                <                <
|  Q   Q   Q  Q     Q  Q  Q  H       Q  Q  Q  E  E W
|----------------|----------------|------------------------------|
|----------------|----------------|------------------------------|
|-11---9---7--6--|--7--6--4--2----|--7--6--4--2-/4-6-------------|
|----------------|----------------|------------------------------|
|-12--11---9--7--|--9--7--5--4----|--9--7--5--4-/5-7-------------|
|----------------|----------------|------------------------------|


  Gtr II
   Q    Q    Q    Q     Q   Q  Q  W
|-14---12---10----9--|-10---9--7--5----|
|------14---12---10--|-12--10--5--2----|
|--------------------|-----------------|
|--------------------|-----------------|
|--------------------|-----------------|
|--------------------|-----------------|
|
| Gtr III
|  Q    Q    Q    Q     Q   Q  Q  W
|--------------------|-----------------|
|--7----5----3-------|--3------5-------|
|-----------------6--|------6-----2----|
|--------------------|-----------------|
|--5----4----2----0--|--2---0----------|
|--------------------|---------4--2----|
|
| Gtr I
|  <
|  Q    Q    Q    Q     Q   Q  Q  W
|--------------------|-----------------|
|--------------------|-----------------|
|--7----6----4----2--|--4---2--1-------|
|--------------------|------------4----|
|--9----7----5----4--|--5---4--2-------|
|--------------------|------------5----|


   Q   Q  Q  Q   Q  Q   H   Q     W
|--9--12--4--4---5--7--16--19----21-----|
|-10--14--5--5---7--9--17--21----17-----|
|---------------------------------------|
|---------------------------------------|
|---------------------------------------|
|---------------------------------------|
|
| Gtr III
|  Q   Q  Q  Q   Q  Q   H   Q     W
|--5---4--0--0------4---4---2----12-----|
|------0---------2--0---3--------10-----|
|--6---1--1--1---2--1-------7-----9-----|
|---------------------------------7-----|
|---------------------------4-----4-----|
|-----------------------0---------------|
|
| Gtr I
|  <
|  Q   Q  Q  Q   Q  Q   H   Q     W
|---------------------------------------|
|---------------------------------2-----|
|--2---1------------1---1---2----(2)----|
|---------2--2--/4------0--(0)----2-----|
|--4---2------------2-------------0-----|
|---------4--4--/5------0--(0)----------|



Duration Legend
---------------
W - whole; H - half; Q - quarter; E - 8th; S - 16th; T - 32nd; X - 64th; a - acciaccatura
+ - note tied to previous; . - note dotted; .. - note double dotted
Uncapitalized letters represent notes that are staccato (1/2 duration)
Irregular groupings are notated above the duration line
Duration letters will always appear directly above the note/fret number it represents the
duration for.  Duration letters with no fret number below them represent rests.  Multi-
bar rests are notated in the form Wxn, where n is the number of bars to rest for.  Low
melody durations appear below the staff

Tablature Legend
----------------
 h   - hammer-on
 p   - pull-off
 b   - bend
 pb  - pre-bend
 r   - bend release (if no number after the r, then release immediately)
 /\  - slide into or out of (from/to "nowhere")
 s   - legato slide
 S   - shift slide
<n> - natural harmonic
[n]  - artificial harmonic
n(n) - tapped harmonic
 ~   - vibrato
 tr  - trill
 T   - tap
 TP  - trem. picking
 PM  - palm muting
\n/  - tremolo bar dip; n = amount to dip
 \n  - tremolo bar down
 n/  - tremolo bar up
/n\  - tremolo bar inverted dip
 =   - hold bend; also acts as connecting device for hammers/pulls
 <> - volume swell (louder/softer)
 x   - on rhythm slash represents muted slash
 o   - on rhythm slash represents single note slash

Misc Legend
-----------
 |  - bar
||  - double bar
||o - repeat start
o|| - repeat end
*|  - double bar (ending)
 :  - bar (freetime)
 $  - Segno
 &  - Coda
Tempo markers - <E/E./Q/Q./H/H.> = BPM(8/16=s8/s16), where s8 = swing 8ths, s16 = swing 16ths


** Generated using Power Tab Editor by Brad Larsen: The Official Power Tab Web Site