#----------------------------------PLEASE NOTE---------------------------------#
#This file is the author's own work and represents their interpretation of the #
#song. You may only use this file for private study, scholarship, or research. #
#------------------------------------------------------------------------------#

NIGHT OF THE ISMEJU
As recorded by Blood Vacuum
(From the 2004 Album TEMPORAL STORM )

Transcribed by MC

Words and Music by Matthew Calestino
Arranged by M.Calestino


Gtr I (D G C F A D) - 'Untitled'
Gtr II (D G C F A D) - 'harmony leads'

  Q=82
 4/4
  Gtr I
      PM    PM    PM    PM      PM    PM    PM    PM
  |-3-| |-3-| |-3-| |-3-|   |-3-| |-3-| |-3-| |-3-|
  S S S S S S S S S S S S   S S S S S S S S S S S S
|-------------------------|-------------------------|
|-------------------------|-------------------------|
|-7-----7-----7-----7-----|-5-----5-----5-----5-----|
|---8p0---8p0---8p0---8p0-|---7p0---7p0---7p0---7p0-|
|-------------------------|-------------------------|
|-------------------------|-------------------------|


      PM    PM    PM    PM      PM    PM    PM    PM
  |-3-| |-3-| |-3-| |-3-|   |-3-| |-3-| |-3-| |-3-|
  S S S S S S S S S S S S   S S S S S S S S S S S S
|-------------------------|---------------------------|
|-------------------------|---------------------------|
|-3-----3-----3-----3-----|-2-----2-----2-----2-------|
|---5p0---5p0---5p0---5p0-|---4p0---4p0---4p0---4p0---|
|-------------------------|---------------------------|
|-------------------------|---------------------------|


      PM    PM    PM    PM      PM    PM    PM    PM
  |-3-| |-3-| |-3-| |-3-|   |-3-| |-3-| |-3-| |-3-|
  S S S S S S S S S S S S   S S S S S S S S S S S S
|-------------------------|-------------------------|
|-------------------------|-------------------------|
|-7-----7-----7-----7-----|-5-----5-----5-----5-----|
|---8p0---8p0---8p0---8p0-|---7p0---7p0---7p0---7p0-|
|-------------------------|-------------------------|
|-------------------------|-------------------------|


      PM    PM    PM    PM      PM    PM    PM    PM
  |-3-| |-3-| |-3-| |-3-|   |-3-| |-3-| |-3-| |-3-|
  S S S S S S S S S S S S   S S S S S S S S S S S S
|-------------------------|----------------------------|
|-------------------------|----------------------------|
|-3-----3-----3-----3-----|-2-----2-----2-----2--------|
|---5p0---5p0---5p0---5p0-|---4p0---4p0---4p0---4p0----|
|-------------------------|----------------------------|
|-------------------------|----------------------------|


       Gtr II
    ~~~~~~~~~~~~~~~~~~~~~~~~~~~~~~~                   ~~~~~
    Q.                    E      Q             S   S  S.
|------------------------10---|--8------------------------|
|-/11--------------------11---|-10-------------8\--7--8---|
|-/12-------------------------|---------------------------|
|-----------------------------|----------------8\--7--8---|
|-----------------------------|---------------------------|
|-----------------------------|---------------------------|
|
| Gtr I
|        PM    PM    PM     PM       PM    PM    PM     PM
|   |-3--| |-3-| |-3-| |-3--|    |-3-| |-3-| |-3-| |-3--|
|   S  S S S S S S S S S  S S    S S S S S S S S S S  S S
|-----------------------------|---------------------------|
|-----------------------------|---------------------------|
|---7------7-----7-----7------|--5-----5-----5-----5------|
|------8p0---8p0---8p0----8p0-|----7p0---7p0---7p0----7p0-|
|-----------------------------|---------------------------|
|-----------------------------|---------------------------|


 4/4
 ~~~~~~~~~~~~~~~~~~~~~~~~~~~~~~~~~~~~~~~~~~
   Q           Q             E           E     Q
|--------------------------|--------------------------|
|-10-----------8-----------|-7-----------4-----3------|
|--------------------------|-------------------2------|
|-10-----------8-----------|-7-----------4------------|
|--------------------------|--------------------------|
|--------------------------|--------------------------|
|
|      PM    PM    PM    PM      PM    PM    PM    PM
|  |-3-| |-3-| |-3-| |-3-|   |-3-| |-3-| |-3-| |-3-|
|  S S S S S S S S S S S S   S S S S S S S S S S S S
|--------------------------|--------------------------|
|--------------------------|--------------------------|
|--3-----3-----3-----3-----|-2-----2-----2-----2------|
|----5p0---5p0---5p0---5p0-|---4p0---4p0---4p0---4p0--|
|--------------------------|--------------------------|
|--------------------------|--------------------------|


  Q=82
  Gtr I
      PM    PM    PM    PM      PM    PM    PM    PM
  |-3-| |-3-| |-3-| |-3-|   |-3-| |-3-| |-3-| |-3-|
  S S S S S S S S S S S S   S S S S S S S S S S S S
|-------------------------|-------------------------|
|-------------------------|-------------------------|
|-7-----7-----7-----7-----|-5-----5-----5-----5-----|
|---8p0---8p0---8p0---8p0-|---7p0---7p0---7p0---7p0-|
|-------------------------|-------------------------|
|-------------------------|-------------------------|


      PM    PM    PM    PM      PM    PM    PM    PM
  |-3-| |-3-| |-3-| |-3-|   |-3-| |-3-| |-3-| |-3-|
  S S S S S S S S S S S S   S S S S S S S S S S S S     4x
|-------------------------|-----------------------------||
|-------------------------|----------------------------o||
|-3-----3-----3-----3-----|-2-----2-----2-----2---------||
|---5p0---5p0---5p0---5p0-|---4p0---4p0---4p0---4p0-----||
|-------------------------|----------------------------o||
|-------------------------|-----------------------------||


                                         \6.75/
      PM    PM    PM    PM               ~~~~~~~
  |-3-| |-3-| |-3-| |-3-|
  S S S S S S S S S S S S    S   S   S   Q
|-------------------------|------------------------|
|-------------------------|---------<3>-<3>--------|
|-2-----2-----2-----2-----|-----<3>-----<3>--------|
|---4p0---4p0---4p0---4p0-|-<3>---------<3>--------|
|-------------------------|------------------------|
|-------------------------|------------------------|


                          PM--|       PM      PM
  S S S S S T T T S S S S S S S T T T T T T T T   S S S S S S S S T S S S S
|-----------------------------------------------|----------------------------|
|-----------------------------------------------|----------------------------|
|---------------------------------------8-7-5-0-|----------------------------|
|-5S4-4---4-------5---4---------8-7-5-0---------|-5S4-4---4-----5-x-4--------|
|-6S5-5-5-5-5-5-5-6-5-5-5-5-5-5-----------------|-6S5-5-5-5-5-5-6-x-5-5-5-5--|
|-----------------------------------------------|-----------------x----------|


    T   T   T   T   T   T   T  T  T  T  T  T
|---------------------^10h^15----------------|
|-----------------^11---------11-------------|
|-------------^12----------------12----------|
|---------^12-----------------------12-------|
|-^10h^13------------------------------13-10-|
|--------------------------------------------|


                      PM--------|
  S S S S S S S S T S S S S T T T T T T T T
|--------------------------------------------|
|--------------------------------------------|
|--------------------------------------------|
|-5S4-4---4-----5-x-4-------8-7-5-0----------|
|-6S5-5-5-5-5-5-6-x-5-5-5-5---------6-5-3-0--|
|-----------------x--------------------------|


                       PM--|
  S  S S S S S S S T S S S S S S S S S S
|----------------------------------------|----|
|----------------------------------------|----|
|----------------------------------7h8-7-|----|
|-5-/4-4---4-----5-x-4-----------4-7-7-7-|----|
|-6--5-5-5-5-5-5-6-x-5-5-5-5---5---------|----|
|------------------x---------5-----------|----|


                      PM----|                          PM----|
  S S S S S S S S S S S S S S S S S S  S S S S S S S S S S S S S S  S S  8x
|------------------------------------------------------------------------||
|-----------------------------------------------------------------------o||
|------------------------------------------------------------------------||
|-4S3-3---3-----1---3---------4S3-4S3--3---3-----1---3---------4S3-/6-4--||
|-4S3-3---3-----1---3---------4S3-4S3--3---3-----1---3---------4S3-/6-4-o||
|-------1-1-1-1---1---1-1-1-1------------1---1-1---1---1-1-1-1-----------||


                    PM----|                          PM----|
  S S S S S S S S S S S S S S S  S S S S S S S S S S S S S S S S   S S
|-----------------------------------------------------------------------|
|-----------------------------------------------------------------------|
|-----------------------------------------------------------------------|
|-3-3---3-----1---3---------4S3--4S3-3---3-----1---3---------4S3--/6-4--|
|-3-3---3-----1---3---------4S3--4S3-3---3-----1---3---------4S3--/6-4--|
|-----1-1-1-1---1---1-1-1-1------------1---1-1---1---1-1-1-1------------|


      PM    PM    PM    PM      PM    PM    PM    PM
  |-3-| |-3-| |-3-| |-3-|   |-3-| |-3-| |-3-| |-3-|
  S S S S S S S S S S S S   S S S S S S S S S S S S
|-------------------------|-------------------------|
|-------------------------|-------------------------|
|-7-----7-----7-----7-----|-5-----5-----5-----5-----|
|---8p0---8p0---8p0---8p0-|---7p0---7p0---7p0---7p0-|
|-------------------------|-------------------------|
|-------------------------|-------------------------|


      PM    PM    PM    PM      PM    PM    PM    PM
  |-3-| |-3-| |-3-| |-3-|   |-3-| |-3-| |-3-| |-3-|
  S S S S S S S S S S S S   S S S S S S S S S S S S
|-------------------------|----------------------------|
|-------------------------|----------------------------|
|-3-----3-----3-----3-----|-2-----2-----2-----2--------|
|---5p0---5p0---5p0---5p0-|---4p0---4p0---4p0---4p0----|
|-------------------------|----------------------------|
|-------------------------|----------------------------|


       PM     PM     PM     PM      PM    PM    PM    PM
  |-3--| |-3--| |-3--| |-3--|   |-3-| |-3-| |-3-| |-3-|
  S  S S S  S S S  S S S  S S   S S S S S S S S S S S S
|-----------------------------|-------------------------|
|-----------------------------|-------------------------|
|-----------------------------|-------------------------|
|-8------8------8------8------|-7-----7-----7-----7-----|
|---10p0---10p0---10p0---10p0-|---8p0---8p0---8p0---8p0-|
|-----------------------------|-------------------------|


      PM    PM    PM    PM      PM    PM    PM    PM
  |-3-| |-3-| |-3-| |-3-|   |-3-| |-3-| |-3-| |-3-|
  S S S S S S S S S S S S   S S S S S S S S S S S S     4x
|-------------------------|-----------------------------||
|-------------------------|----------------------------o||
|-------------------------|-----------------------------||
|-5-----5-----5-----5-----|-4-----4-----4-----4---------||
|---6p0---6p0---6p0---6p0-|---5p0---5p0---5p0---5p0----o||
|-------------------------|-----------------------------||


                        PM--|       PM        PM
  S S S S S S S S T S S S S S T T T T T   T T T S S S S S S S S T S S S S
|---------------------------------------|----------------------------------|
|---------------------------------------|----------------------------------|
|-------------------------------------8-|-7-5-0----------------------------|
|-5S4-4---4-----5-x-4---------8-7-5-0---|-------5S4-4---4-----5-x-4--------|
|-6S5-5-5-5-5-5-6-x-5-5-5-5-5-----------|-------6S5-5-5-5-5-5-6-x-5-5-5-5--|
|-----------------x---------------------|-----------------------x----------|


    T   T   T   T   T   T   T  T  T  T  T  T
|---------------------^17h^22----------------|
|-----------------^19---------19-------------|
|-------------^19----------------19----------|
|---------^19-----------------------19-------|
|-^17h^20------------------------------17-20-|
|--------------------------------------------|


                      PM----------|
  S S S S S S S S T S S   S S T T T T T T T T
|-----------------------|---------------------|
|-----------------------|---------------------|
|-----------------------|---------------------|
|-5S4-4---4-----5-x-4---|-----8-7-5-0---------|
|-6S5-5-5-5-5-5-6-x-5-5-|-5-5---------6-5-3-0-|
|-----------------x-----|---------------------|


                       PM--|
  S  S S S S S S S T S S S S S S S S  S S
|--------------------------------------------|
|--------------------------------------------|
|----------------------------------7h=8-7----|
|-5-/4-4---4-----5-x-4-----------4-7--7-7----|
|-6--5-5-5-5-5-5-6-x-5-5-5-5---5-------------|
|------------------x---------5---------------|


  Q=120
  S S S S S S S S S S S S S S S S S S S S S S S S S S S S S S S S
|-----------------------------------------------------------------|
|-----------------------------------------------------------------|
|-----------------------------------------------------------------|
|-------------------------------4-5-7-5-4-------------------------|
|-------------3-----3-5-6-0-5-6-----------6-5-3---------------3---|
|-3-5-6-3-5-6---5-6-----------------------------6-3-5-6-3-5-6---5-|


  S S S S S S S S S S S S S S S S
|----------------------------------|
|----------------------------------|
|----------------------------------|
|---------------4-5-7-5-4----------|
|---3-5-6-0-5-6-----------6-5-3----|
|-6-----------------------------6--|


  Gtr II
  S S S S S S S S S S S S S S S S
|---------------------------------|
|---------------------------------|
|-------------------------------2-|
|-------------1-----1-3-5-0-4-5---|
|-1-3-5-1-3-5---3-5---------------|
|---------------------------------|
|
| Gtr I
| S S S S S S S S S S S S S S S S
|---------------------------------|
|---------------------------------|
|---------------------------------|
|-------------------------------4-|
|-------------3-----3-5-6-0-5-6---|
|-3-5-6-3-5-6---5-6---------------|


  S S S S S S S S S S S S S S S S   S S S S S S S S S S S S S S S S
|---------------------------------|---------------------------------|
|---------------------------------|---------------------------------|
|-3-5-3-2-------------------------|---------------2-3-5-3-2---------|
|---------5-4-1---------------1---|---1-3-5-0-4-5-----------5-4-1---|
|---------------5-1-3-5-1-3-5---3-|-5-----------------------------5-|
|---------------------------------|---------------------------------|
|
| S S S S S S S S S S S S S S S S   S S S S S S S S S S S S S S S S
|---------------------------------|---------------------------------|
|---------------------------------|---------------------------------|
|---------------------------------|---------------------------------|
|-5-7-5-4-------------------------|---------------4-5-7-5-4---------|
|---------6-5-3---------------3---|---3-5-6-0-5-6-----------6-5-3---|
|---------------6-3-5-6-3-5-6---5-|-6-----------------------------6-|


  Gtr II
  S S S S S S S S S S S S S S S S
|---------------------------------|
|---------------------------------|
|-------------------------------2-|
|-------------1-----1-3-5-0-4-5---|
|-1-3-5-1-3-5---3-5---------------|
|---------------------------------|
|
| Gtr I
| S S S S S S S S S S S S S S S S
|---------------------------------|
|---------------------------------|
|---------------------------------|
|-------------------------------4-|
|-------------3-----3-5-6-0-5-6---|
|-3-5-6-3-5-6---5-6---------------|


  S S S S S S S S S S S S S S S S   S S S S S S S S S S S S S S S S
|---------------------------------|---------------------------------|
|---------------------------------|---------------------------------|
|-3-5-3-2-------------------------|---------------2-3-5-3-2---------|
|---------5-4-1---------------1---|---1-3-5-0-4-5-----------5-4-1---|
|---------------5-1-3-5-1-3-5---3-|-5-----------------------------5-|
|---------------------------------|---------------------------------|
|
| S S S S S S S S S S S S S S S S   S S S S S S S S S S S S S S S S
|---------------------------------|---------------------------------|
|---------------------------------|---------------------------------|
|---------------------------------|---------------------------------|
|-5-7-5-4-------------------------|---------------4-5-7-5-4---------|
|---------6-5-3---------------3---|---3-5-6-0-5-6-----------6-5-3---|
|---------------6-3-5-6-3-5-6---5-|-6-----------------------------6-|


  Q=82
                        PM--|       PM        PM
  S S S S S S S S T S S S S S T T T T T   T T T S S S S S S S S T S S S S
|---------------------------------------|----------------------------------|
|---------------------------------------|----------------------------------|
|-------------------------------------8-|-7-5-0----------------------------|
|-5S4-4---4-----5-x-4---------8-7-5-0---|-------5S4-4---4-----5-x-4--------|
|-6S5-5-5-5-5-5-6-x-5-5-5-5-5-----------|-------6S5-5-5-5-5-5-6-x-5-5-5-5--|
|-----------------x---------------------|-----------------------x----------|


    T   T   T   T   T   T   T  T  T  T  T  T
|---------------------^17h^22----------------|
|-----------------^19---------19-------------|
|-------------^19----------------19----------|
|---------^19-----------------------19-------|
|-^17h^20------------------------------17-20-|
|--------------------------------------------|


                      PM----------|
  S S S S S S S S T S S   S S T T T T T T T T
|-----------------------|---------------------|
|-----------------------|---------------------|
|-----------------------|---------------------|
|-5S4-4---4-----5-x-4---|-----8-7-5-0---------|
|-6S5-5-5-5-5-5-6-x-5-5-|-5-5---------6-5-3-0-|
|-----------------x-----|---------------------|



Duration Legend
---------------
W - whole; H - half; Q - quarter; E - 8th; S - 16th; T - 32nd; X - 64th; a - acciaccatura
+ - note tied to previous; . - note dotted; .. - note double dotted
Uncapitalized letters represent notes that are staccato (1/2 duration)
Irregular groupings are notated above the duration line
Duration letters will always appear directly above the note/fret number it represents the
duration for.  Duration letters with no fret number below them represent rests.  Multi-
bar rests are notated in the form Wxn, where n is the number of bars to rest for.  Low
melody durations appear below the staff

Tablature Legend
----------------
 h   - hammer-on
 p   - pull-off
 b   - bend
 pb  - pre-bend
 r   - bend release (if no number after the r, then release immediately)
 /\  - slide into or out of (from/to "nowhere")
 s   - legato slide
 S   - shift slide
<n> - natural harmonic
[n]  - artificial harmonic
n(n) - tapped harmonic
 ~   - vibrato
 tr  - trill
 T   - tap
 TP  - trem. picking
 PM  - palm muting
\n/  - tremolo bar dip; n = amount to dip
 \n  - tremolo bar down
 n/  - tremolo bar up
/n\  - tremolo bar inverted dip
 =   - hold bend; also acts as connecting device for hammers/pulls
 <> - volume swell (louder/softer)
 x   - on rhythm slash represents muted slash
 o   - on rhythm slash represents single note slash

Misc Legend
-----------
 |  - bar
||  - double bar
||o - repeat start
o|| - repeat end
*|  - double bar (ending)
 :  - bar (freetime)
 $  - Segno
 &  - Coda
Tempo markers - <E/E./Q/Q./H/H.> = BPM(8/16=s8/s16), where s8 = swing 8ths, s16 = swing 16ths


** Generated using Power Tab Editor by Brad Larsen: The Official Power Tab Web Site