#----------------------------------PLEASE NOTE---------------------------------#
#This file is the author's own work and represents their interpretation of the #
#song. You may only use this file for private study, scholarship, or research. #
#------------------------------------------------------------------------------#

ONE FOR THE DOC
As recorded by Blood Vacuum
(From the 2005 Album HOPELESS IN C MINOR)

Transcribed by MC

Music by M.Calestino
Arranged by MC


Gtr I (C G C F A D) - 'Untitled'
Gtr II (C G C F A D) - 'Untitled'
Gtr III (C G C F A D) - 'Untitled'

  H.=82
 12/4
  Gtr III
    ~~~~~~~~~~~~~~~~~~~~~~~~~~~~~~~~~~~~~~~~~~~
    W.                     W.
|----------------------|----------------------|
|----------------------|----------------------|
|-/16------------------|-/21------------------|
|----------------------|----------------------|
|----------------------|----------------------|
|----------------------|----------------------|
|
| Gtr I
|   Q   Q  Q  Q  Q  Q      Q   Q  Q  Q  Q  Q
|---0---0--0--0--0--0--|---0---0--0--0--0--0--|
|---9---9--9--9--9--9--|---9---9--9--9--9--9--|
|---8---8--8--8--8--8--|---8---8--8--8--8--8--|
|---9---9--9--9--9--9--|---9---9--9--9--9--9--|
|----------------------|----------------------|
|----------------------|----------------------|


 ~~~~~~
    W.                    H.            H.
|----------------------|---------------21---------|
|-/21------------------|-21b23--------(21)--------|
|----------------------|--------------------------|
|----------------------|--------------------------|
|----------------------|--------------------------|
|----------------------|--------------------------|
|
|   Q   Q  Q  Q  Q  Q     Q     Q  Q    Q   Q  Q
|---0---0--0--0--0--0--|--0-----0--0----0---0--0--|
|---9---9--9--9--9--9--|--9-----9--9----9---9--9--|
|---8---8--8--8--8--8--|--8-----8--8----8---8--8--|
|---9---9--9--9--9--9--|--9-----9--9----9---9--9--|
|----------------------|--------------------------|
|----------------------|--------------------------|


  H.=82
 12/4
  Gtr III
   W.                     W                       +W
|-22b24==================21b23-----------------|-(21)b23-----------------------------------------|
|----------------------------------------------|-------------------------------------------------|
|----------------------------------------------|-------------------------------------------------|
|----------------------------------------------|-------------------------------------------------|
|----------------------------------------------|-------------------------------------------------|
|----------------------------------------------|-------------------------------------------------|
|
| Gtr I
|                                                         |-3-|                |-3-|
|  Q      Q  Q  Q  Q  Q   Q     Q  Q  Q  Q  Q      Q      E E E Q  Q  Q  Q  Q  E E E Q  Q  Q  Q
|----------------------------------------------|-------------------------------------------------|
|----------------------------------------------|-------------------------------------------------|
|----------------------------------------------|-------------------------------------------------|
|--6------6--6--6--6--6---6-----6--6--6--6h=7--|---6------6-6-6-6--6--6--6--4--4-4-4-4--4--------|
|--4------4--4--4--4--4---4-----4--4--4--4--4--|---7------7-7-7-7--7--7--7--4--4-4-4-4--4--4h=7--|
|--4------4--4--4--4--4---4-----4--4--4--4--4--|---4------4-4-4-4--4--4--4--4--4-4-4-4--4--4h=7--|


                                         ~~
  W               Q      Q   Q   Q   Q   H            W               Q   Q  Q  Q   Q  Q    Q    Q
|----------------14---------19----------------------|--------------------------------------------------|
|----------------17b19--17------15------------------|----------------12--10----------------------------|
|-----------------------------------14--11----------|----------------------------------9--/11--(11)----|
|---------------------------------------------------|------------------------7--9--11-----------12-----|
|---------------------------------------------------|--------------------------------------------------|
|---------------------------------------------------|--------------------------------------------------|
|
|    |-3-|                                               |-3-|
| Q  E E E Q  Q   Q      Q   Q   Q   Q   Q  Q    Q    Q  E E E Q  Q   Q   Q  Q  Q   Q  Q    Q    Q
|---------------------------------------------------|--------------------------------------------------|
|---------------------------------------------------|--------------------------------------------------|
|----------------11-----/9---9---9---9---9----------|----------------11--/9------------6---/7---(7)----|
|-0--0-0-0-0--0---9-----/7---7---7---7---7----------|-0--0-0-0-0--0---9--/7--4--6h==7------------9-----|
|-0--0-0-0-0--0--------------0---0---0---0--0--/12--|-0--0-0-0-0--0------------------------------------|
|-0--0-0-0-0--0--------------0---0---0---0--0--/12--|-0--0-0-0-0--0------------------------------------|


  Gtr III
                                          |3-|   |---3----|   |-3--|   |-3--|   |-3--|   |-3--|     |3-|
                                        E E  E   E   E    E   E E  E   E E  E   E E  E   E E  E   E E  E E    E   E  E   E  E   E  E   E  E S
|-------------------------------------|-------------------------------------------------------------------------------------------------------|
|-------------------------------------|-------------------------------------------------------------------------------------------------------|
|-------------------------------------|-----------------------------------------------------------4-6-11-6---11---4-11---2-11---4-11---2-11-1-|
|-------------------------------------|--------------------------------4-7-11---4-7-11---4-7-11-----------------------------------------------|
|-------------------------------------|-4-7-11---4---7---11---4-7-11--------------------------------------------------------------------------|
|-------------------------------------|-------------------------------------------------------------------------------------------------------|
|
|                                              |---3---|                                               |-3-|
| Q  Q  Q  Q  Q  Q  Q  Q  Q  Q  Q  Q    Q      E   E   E    Q        Q        Q        Q        Q      E E E    Q      Q      Q      Q
|-------------------------------------|-------------------------------------------------------------------------------------------------------|
|-------------------------------------|-------------------------------------------------------------------------------------------------------|
|-------------------------------------|-------------------------------------------------------------------------------------------------------|
|-6--6--6--6--6--6--6--6--6--6--6h=7--|-6------6---6---6----6--------6--------6--------6--------4------4-4-4----4------4------4------4--------|
|-4--4--4--4--4--4--4--4--4--4--4--4--|-7------7---7---7----7--------7--------7--------7--------4------4-4-4----4------4------4------4--------|
|-4--4--4--4--4--4--4--4--4--4--4--4--|-4------4---4---4----4--------4--------4--------4--------4------4-4-4----4------4------4------4--------|


                            ~~~                                     ~~~~~                          ~~~~~
    W                Q  Q   W.                       H.             H.          Q    Q       Q     H.
|--------------------7----------------------------|---------------<12>----------------------------<9>-----------|
|---7b11----------------5--[4]--------------------|-<7>-----------(<7>)---------------------<9>--(<9>)----------|
|--------------------------[4]--------------------|---------------------------------<9>-------------------------|
|-------------------------------------------------|----------------------------<9>------------------------------|
|-------------------------------------------------|-------------------------------------------------------------|
|-------------------------------------------------|-------------------------------------------------------------|
|
|        |-3-|                  |-3-|                    |-3-|                       |-3--|
| Q      E E E Q  Q  Q  Q   Q   E E E Q  Q  Q  Q     Q   E E E Q    Q    Q  Q   Q    E  E E  Q     Q    Q  Q
|-------------------------------------------------|-------------------------------------------------------------|
|-------------------------------------------------|-------------------------------------------------------------|
|-------------------------------------------------|-----------------------------1----1--1-1--1-----1----1--1----|
|-2------2-2-2-2--2--2--2-------------------------|--4---2-2-2-2----2----2--2---2----2--2-2--2-----2----2--2----|
|-2------2-2-2-2--2--2--2---6---6-6-6-6--6--6--6--|--2---2-2-2-2----2----2--2---2----2--2-2--2-----2----2--2----|
|-2------2-2-2-2--2--2--2---2---2-2-2-2--2--2--2--|--2---2-2-2-2----2----2--2---2----2--2-2--2-----2----2--2----|


  H.=82
 12/4
  Gtr II
                                                                                              ~
  Q  Q  Q  Q  Q  Q  Q  Q  Q  Q  Q  Q    E E E   E   E E E E E Q   Q   Q     Q     Q   Q   Q   Q
|-------------------9--------7--------|-5h7p5----------------------------------------------------|
|----------7--------------------------|---------5h==7p5------------------------------------------|
|-7p=6--7-----7--6-----7--6-----7--6--|-----------------6h7p6-----6------------------------------|
|-------------------------------------|-----------------------9-------9-----7-----6--------------|
|-------------------------------------|-----------------------------------------------9---7---5--|
|-------------------------------------|----------------------------------------------------------|
|
| Gtr I
|                                           |--3--|                     |--3--|
| Q  Q  Q  Q  Q  Q  Q  Q  Q  Q  Q  Q    Q   E E   E Q   Q   Q   Q   Q   E E   E Q   Q   Q   Q
|-------------------------------------|----------------------------------------------------------|
|-------------------------------------|----------------------------------------------------------|
|-------------------------------------|----------------------------------------------------------|
|-6--6--6--6--6--6--6--6--6--6--6h=7--|-6---6-6---6-6---6---6---6---4---4-4---4-4---4------------|
|-4--4--4--4--4--4--4--4--4--4--4--4--|-7---7-7---7-7---7---7---7---4---4-4---4-4---4---4h==7----|
|-4--4--4--4--4--4--4--4--4--4--4--4--|-4---4-4---4-4---4---4---4---4---4-4---4-4---4---4h==7----|


                         ~
   Q  Q     Q  Q   Q   E W                         Q  E    E   E  E E  E  E E  E  E E  E E  Q    H            Q
|----------------------------------------------|----------------------------9---------------------------------9---------|
|------------------7-----9---------------------|-/10--9h==10p==9----9-10-12---12-10-9h10p9-------9------------9---------|
|--------------7-------------------------------|-----------------11------------------------11---11b13-------(11)--------|
|-----4-----7----------------------------------|------------------------------------------------------------------------|
|-/5-------------------------------------------|------------------------------------------------------------------------|
|----------------------------------------------|------------------------------------------------------------------------|
|
|     |-3-|                                           |--3---|
|  Q  E E E Q  Q   Q   Q   Q  Q  Q  Q  Q    Q      Q  E E    E Q    Q     Q    Q    Q    Q    Q       Q   Q       Q
|----------------------------------------------|------------------------------------------------------------------------|
|----------------------------------------------|------------------------------------------------------------------------|
|-----------------11--/9---9--9--9--9----------|-------------------------11---/9----------------------6--/7------(7)----|
|--0--0-0-0-0--0---9--/7---7--7--7--7----------|---0--0-0----0-0----0-----9---/7----4----6h===7-------------------9-----|
|--0--0-0-0-0--0-----------0--0--0--0--0--/12--|---0--0-0----0-0----0---------------------------------------------------|
|--0--0-0-0-0--0-----------0--0--0--0--0--/12--|---0--0-0----0-0----0---------------------------------------------------|


    Gtr II
                                                                                         ~~~
  W                                      Q  Q     Q  Q  Q  Q  E E E   E   E E E E E E E  Q
|-------------------------------------|-----------------------------------------4------------|
|-------------------------------------|-----------------------4-5-4-------4-5-7---7-5-4------|
|-------------------------------------|--------------4-----4----------6-----------------[6]--|
|-------------------------------------|-----------4-----4------------------------------------|
|-------------------------------------|-/4--7------------------------------------------------|
|-------------------------------------|------------------------------------------------------|
|
|                                           |-3-|                 |--3--|
| Q  Q  Q  Q  Q  Q  Q  Q  Q  Q  Q  Q     Q  E E E Q  Q  Q  Q  Q   E E   E Q   Q   Q   Q
|-------------------------------------|------------------------------------------------------|
|-------------------------------------|------------------------------------------------------|
|-------------------------------------|------------------------------------------------------|
|-6--6--6--6--6--6--6--6--6--6--6h=7--|--6--6-6-6-6--6--6--6--4---4-4---4-4---4---4---4------|
|-4--4--4--4--4--4--4--4--4--4--4--4--|--7--7-7-7-7--7--7--7--4---4-4---4-4---4---4---4------|
|-4--4--4--4--4--4--4--4--4--4--4--4--|--4--4-4-4-4--4--4--4--4---4-4---4-4---4---4---4------|


                                                                                  T  T        T  T     T  T     T  T             T    T     T  T     T  T
   Q  Q     Q  E  S  S  S E  E   S  S  S S S  S S  E   E    E E  E E  E E      E  E  E   E    E  E  E  E  E  E  E  E  E  E  E    E    E  E  E  E  E  E  E
|-------------------------7h12p==7---------7h11p7-11p==7---11p7-11-7-11-7----|-7h11-12---7h==11-12-11h12-14p11-12-14-12h14-16p==12---14-16-12-16-12-16-17---|
|----------------------^9----------------9-----------------------------------|------------------------------------------------------------------------------|
|-------------------^9----------------^9-------------------------------------|------------------------------------------------------------------------------|
|-----6--------6-^9----------------^9----------------------------------------|------------------------------------------------------------------------------|
|-/7--------7----------------------------------------------------------------|------------------------------------------------------------------------------|
|----------------------------------------------------------------------------|------------------------------------------------------------------------------|
|
|     |-3-|                                        |--3--|                           |--3--|                                |--3---|
|  Q  E E E Q  Q        Q      Q         Q         E E   E  Q    Q    Q   Q    Q     E E   E  Q     Q     Q     Q     Q     E E    E  Q     Q     Q     Q
|----------------------------------------------------------------------------|------------------------------------------------------------------------------|
|----------------------------------------------------------------------------|------------------------------------------------------------------------------|
|----------------------------------------------------------------------------|----------------------------------------1-----1-1----1--1-----1-----1-----1---|
|--2--2-2-2-2--2--------2------2---------------------------------------------|-4-----2-2---2--2-----2-----2-----2-----2-----2-2----2--2-----2-----2-----2---|
|--2--2-2-2-2--2--------2------2---------6---------6-6---6--6----6----6---6--|-2-----2-2---2--2-----2-----2-----2-----2-----2-2----2--2-----2-----2-----2---|
|--2--2-2-2-2--2--------2------2---------2---------2-2---2--2----2----2---2--|-2-----2-2---2--2-----2-----2-----2-----2-----2-2----2--2-----2-----2-----2---|


     Gtr II
                                                                                                                                                                    ~~
  W            E  E E  E  E E E  E E  E  E E  E  E E    T   S   E   E       E    E     E   E     E   E     E   E    E  E    E  E       E    E    E  E    E  E    E  Q
|-----------------------------------------------------|-------------------------^9h==^10---------------------------^9h14------------------------17-21---17----------------|
|-----------------------------------------------------|-------------------^10------------!10-----------------^10-----------10--------------19--------------19-------------|
|-----------------------------------------------------|-----------^11--------------------------!11-------^11------------------11-----/18------------------------18--------|
|-----------------------------------------------------|-------^11----------------------------------^11-------------------------------------------------------------19-----|
|-------------/9h10-9h12-10p9-9h10-9h12-10p9-10-12-9--|-9h^12-------------------------------------------------------------------------------------------------------------|
|-----------------------------------------------------|-------------------------------------------------------------------------------------------------------------------|
|
|                                                                     |---3---|                                                  |---3---|
| Q  Q  Q  Q   Q    Q     Q   Q    Q     Q    Q    Q    Q             E E     E    Q         Q         Q         Q       Q       E E     E    Q       Q       Q       Q
|-----------------------------------------------------|-------------------------------------------------------------------------------------------------------------------|
|-----------------------------------------------------|-------------------------------------------------------------------------------------------------------------------|
|-----------------------------------------------------|-------------------------------------------------------------------------------------------------------------------|
|-6--6--6--6---6----6-----6---6----6-----6----6h===7--|-6-------------6-6-----6----6---------6---------6---------6-------4-------4-4-----4----4-------4-------------------|
|-4--4--4--4---4----4-----4---4----4-----4----4----4--|-7-------------7-7-----7----7---------7---------7---------7-------4-------4-4-----4----4-------4-------4h======7---|
|-4--4--4--4---4----4-----4---4----4-----4----4----4--|-4-------------4-4-----4----4---------4---------4---------4-------4-------4-4-----4----4-------4-------4h======7---|


                                            ~~
   Q      E    E    E  E  E  E  E  E  E  E  H  E    Q   Q   Q    Q      E   E   E
|-------------14----------------------------------------------------|---------------^1----------------------------------------------------------------------
|--------14--------17-15-14-17-15-14--------------------------------|---------^19---------------------------------------------------------------------------
|-16b18------------------------------16-14-13-----------------------|-----^19-------------------------------------------------------------------------------
|-------------------------------------------------/16------16-------|-^19-----------------------------------------------------------------------------------
|------------------------------------------------------17-------17--|---------------------------------------------------------------------------------------
|-------------------------------------------------------------------|---------------------------------------------------------------------------------------
|
|         |--3---|                                                              |---3
|  Q      E E    E  Q     Q     Q     Q     Q  Q    Q   Q   Q    Q      Q       E E
|-------------------------------------------------------------------|---------------------------------------------------------------------------------------
|-------------------------------------------------------------------|---------------------------------------------------------------------------------------
|------------------------------11----/9-----9--9----9---9-----------|---------------------------------------------------------------------------------------
|--0------0-0----0--0-----0-----9----/7-----7--7----7---7-----------|---0-------0-0-------------------------------------------------------------------------
|--0------0-0----0--0-----0-----------------0--0----0---0---0--/12--|---0-------0-0-------------------------------------------------------------------------
|--0------0-0----0--0-----0-----------------0--0----0---0---0--/12--|---0-------0-0-------------------------------------------------------------------------


     Gtr II
                                                                                         ~
                                             |-3-|
  W           W           H       Q  Q    Q  E E E E E E E E E E E E E E   E   E E E E E Q
|-------------------------------/10--9--|-9--5h9p5---9-7-5-7p5-------5------------------------|
|---------------------------------------|----------7-----------9-7-5---9---7---5-9-7-5--------|
|---------------------------------------|----------------------------------------------7-6----|
|---------------------------------------|-----------------------------------------------------|
|---------------------------------------|-----------------------------------------------------|
|---------------------------------------|-----------------------------------------------------|
|
|                                            |-3-|                     |--3--|
| Q  Q  Q  Q  Q  Q  Q  Q  Q  Q    Q  Q    Q  E E E Q   Q   Q   Q   Q   E E   E Q   Q   Q   Q
|---------------------------------------|-----------------------------------------------------|
|---------------------------------------|-----------------------------------------------------|
|---------------------------------------|-----------------------------------------------------|
|-6--6--6--6--6--6--6--6--6--6----6h=7--|-6--6-6-6-6---6---6---6---4---4-4---4-4---4---4---4--|
|-4--4--4--4--4--4--4--4--4--4----4--4--|-7--7-7-7-7---7---7---7---4---4-4---4-4---4---4---4--|
|-4--4--4--4--4--4--4--4--4--4----4--4--|-4--4-4-4-4---4---4---4---4---4-4---4-4---4---4---4--|


                                                          ~~~~                                              ~~
   Q  E   E   E E E E E E E E  E E  E   E     E  E  E  E  Q..       Q   Q     Q  Q   Q  Q    Q   Q      Q   H
|---------------------4h7-4------7h11-----------11-14p11----------|--------------9------9--/12--16-----12--------------|
|-----------------4h5-------5-/9--------9---/12----------12-------|-----------9-----/9---------------------14----------|
|-------------2h6-------------------------------------------------|-6--/9----------------------------------------------|
|-----2h==6-------------------------------------------------------|----------------------------------------------------|
|-/4--------------------------------------------------------------|----------------------------------------------------|
|-----------------------------------------------------------------|----------------------------------------------------|
|
|     |--3--|                       |--3--|                             |-3-|                    |-3-|
|  Q  E E   E Q   Q   Q   Q    Q    E E   E   Q     Q     Q    Q    Q   E E E Q  Q   Q  Q    Q   E E E  Q   Q  Q  Q
|-----------------------------------------------------------------|----------------------------------------------------|
|-----------------------------------------------------------------|----------------------------------------------------|
|-----------------------------------------------------------------|--------------------------1---1-1-1--1---1--1--1----|
|--2--2-2---2-2---2---2---2---------------------------------------|-4---2-2-2-2--2---2--2----2---2-2-2--2---2--2--2----|
|--2--2-2---2-2---2---2---2----6----6-6---6---6-----6-----6----6--|-2---2-2-2-2--2---2--2----2---2-2-2--2---2--2--2----|
|--2--2-2---2-2---2---2---2----2----2-2---2---2-----2-----2----2--|-2---2-2-2-2--2---2--2----2---2-2-2--2---2--2--2----|


     Gtr II
                                                                                                   ~~~
  W                                      E E E   E   E E E E E E E E E E E   E   E E E  E E E E E  Q
|-------------------------------------|----------------------------------------------------------------|
|-------------------------------------|---------------------------------------------------6h9p6--------|
|-------------------------------------|----------------------------------6---------6-8-10-------8-[8]--|
|-------------------------------------|----------------------6-----6-8-9-----8---9---------------------|
|-------------------------------------|------6---------6-8-9---8-9-------------------------------------|
|-------------------------------------|-/6h9-----8---9-------------------------------------------------|
|
|                                            |--3--|                     |--3--|
| Q  Q  Q  Q  Q  Q  Q  Q  Q  Q  Q  Q     Q   E E   E Q   Q   Q   Q   Q   E E   E Q   Q    Q   Q
|-------------------------------------|----------------------------------------------------------------|
|-------------------------------------|----------------------------------------------------------------|
|-------------------------------------|----------------------------------------------------------------|
|-8--8--8--8--8--8--8--8--8--8--8h=9--|--8---8-8---8-8---8---8---8---6---6-6---6-6---6-----------------|
|-6--6--6--6--6--6--6--6--6--6--6--6--|--9---9-9---9-9---9---9---9---6---6-6---6-6---6----6h==9--------|
|-6--6--6--6--6--6--6--6--6--6--6--6--|--6---6-6---6-6---6---6---6---6---6-6---6-6---6----6h==9--------|


                                                                          ~~~
  W              Q   Q  Q   Q  Q  Q   Q  Q    Q  Q  Q  Q  Q  Q  Q  Q  Q   H
|--------------------------11--7---------0--|-2p=0------------------------------|
|----------------9--/7--7---7--7--7--/5-----|-------2--5--4--------2------------|
|-------------------------------------------|----------------4--3-----3--[1]----|
|-------------------------------------------|-----------------------------------|
|-------------------------------------------|-----------------------------------|
|-------------------------------------------|-----------------------------------|
|
|                                                                         ~~~
|    |-3-|
| Q  E E E Q  Q  Q   Q  Q   Q  Q  Q   Q  Q    Q  Q  Q  Q  Q  Q  Q  Q  Q   H
|-------------------------------------------|-----------------------------------|
|----------------5--/4--4---4--4--4---------|-4p=0-----2p=0---------------------|
|----------------4---4--4---4--4--4---------|-------3--------3-----3------------|
|-2--2-2-2-2--2---------2---2--2--2---------|-------------------4-----4--[2]----|
|-2--2-2-2-2--2---------2---2--2--2---2--2--|-----------------------------------|
|-2--2-2-2-2--2---------2---2--2--2---2--2--|-----------------------------------|


   E E E E E E E E E E E E E E  E E  Q   Q   Q   Q        Q  Q     Q  Q  Q  Q  Q  Q     Q  Q  Q  Q
|---------------------------------9-11--12--14--12b14--|-11p=9--------7-----------------------------|
|--------------------------7-9-11----------------------|-----------9-----9-----9--------------9--7--|
|--------------------6-8-9-----------------------------|--------------------8-----8--------9--------|
|-/6-8-9-------6-8-9-----------------------------------|--------------------------------9-----------|
|--------6-7-9-----------------------------------------|--------------------------------------------|
|------------------------------------------------------|--------------------------------------------|
|
|                                                            |-3-|                |-3-|
|  Q   Q   Q   Q   Q   Q   Q    Q    Q   Q   Q   Q        Q  E E E Q  Q  Q  Q  Q  E E E Q  Q  Q  Q
|------------------------------------------------------|--------------------------------------------|
|------------------------------------------------------|--------------------------------------------|
|------------------------------------------------------|--------------------------------------------|
|--8---8---8---8---8---8---8----8----8---8---8h==9-----|--8--8-8-8-8--8--8--8--6--6-6-6-6--6--------|
|--6---6---6---6---6---6---6----6----6---6---6---6-----|--9--9-9-9-9--9--9--9--6--6-6-6-6--6--6h=9--|
|--6---6---6---6---6---6---6----6----6---6---6---6-----|--6--6-6-6-6--6--6--6--6--6-6-6-6--6--6h=9--|


      ~~~~~~~~~~~~~~                                                                                          ~
  E E H         W..                             E E E E E E E E E E E E  a  a  a E E  E  E  a  a  a E E  E  E Q
|--------------<5>----------------------------|-------------------------------^6h9p6-------------^6h9p6h=9---------|
|--------------<5>----------------------------|----------------------------^7--------!7-------^7------------7------|
|-8p6-8---------------------------------------|-------------------------^6--------------!6-^6-----------------6----|
|---------------------------------------------|-------------------4-6-8--------------------------------------------|
|---------------------------------------------|-------------4-6-8--------------------------------------------------|
|---------------------------------------------|-4-6-8-4-6-8--------------------------------------------------------|
|
|                                                                                                        ~~~
|     |-3-|
| Q   E E E Q   Q    Q   Q  Q  Q  Q  Q  Q  Q    Q   Q   Q   Q   Q   Q            Q    Q             Q    H
|---------------------------------------------|--------------------------------------------------------------------|
|--------------------5--/4--4--4--4--4--------|-4p==0-------2p==0--------------------------------------------------|
|--------------------4---4--4--4--4--4--------|---------3-----------3-----------------3----------------------------|
|-2---2-2-2-2---2-----------2--2--2--2--------|----------------------------------4------------------4---[2]--------|
|-2---2-2-2-2---2-----------2--2--2--2--2--2--|--------------------------------------------------------------------|
|-2---2-2-2-2---2-----------2--2--2--2--2--2--|--------------------------------------------------------------------|


  Gtr II
      T   T     T     T T   T T    T     T   T   T   T                           T   T               T   T    T T   T     T   T   T   T
  S S S S S S   S   S S S S S S  S S S S S S S S S S S S S S S S S S S S S   S S S S S S   S   S S S S S S  S S S S S S S S S S S S S S S S S S S S S S S S  
|-0h2-4-0h4-0h==4p==0-4-0-2p0-4--0h4-2p0h4-0h4-0h2-0-4-0-4-0-4-0-4-4-0-0-4-|-0h4-6-0h6-0---4---6-0-6-0-6-0--4-0-6-0h6-4p0h6-0h6-0h4-0h6-0-6-0-6-0-6-4-0-6-0-|
|--------------------------------------------------------------------------|--------------------------------------------------------------------------------|
|--------------------------------------------------------------------------|--------------------------------------------------------------------------------|
|--------------------------------------------------------------------------|--------------------------------------------------------------------------------|
|--------------------------------------------------------------------------|--------------------------------------------------------------------------------|
|--------------------------------------------------------------------------|--------------------------------------------------------------------------------|
|
|         |---3---|                                                                  |---3---|
| Q       E   E   E   Q       Q        W                                     Q       E   E   E   Q       Q        W
|--------------------------------------------------------------------------|--------------------------------------------------------------------------------|
|--------------------------------------------------------------------------|--------------------------------------------------------------------------------|
|--------------------------------------------------------------------------|--------------------------------------------------------------------------------|
|-6-------6---6---6---6-------6\-------------------------------------------|-8-------8---8---8---8-------8\-------------------------------------------------|
|-6-------6---6---6---6-------6\-------------------------------------------|-6-------6---6---6---6-------6\-------------------------------------------------|
|-6-------6---6---6---6-------6\-------------------------------------------|-6-------6---6---6---6-------6\-------------------------------------------------|


      T   T               T   T    T T   T     T   T   T   T                         T   T
  S S S S S S   S   S S S S S S  S S S S S S S S S S S S S S S S S S S S S S S   S S S S S S   S
|-0h6-7-0h7-0---7---0-7-0-7-0-7--6-0-7-0h7-6-0h7-0h7-0h7-0h7-0-7-0-7-6-0-7-0-7-|-4-6-6-4h6-6---4---6---------------------------------------------------------------------------------------------
|------------------------------------------------------------------------------|-----------------------------------------------------------------------------------------------------------------
|------------------------------------------------------------------------------|-----------------------------------------------------------------------------------------------------------------
|------------------------------------------------------------------------------|-----------------------------------------------------------------------------------------------------------------
|------------------------------------------------------------------------------|-----------------------------------------------------------------------------------------------------------------
|------------------------------------------------------------------------------|-----------------------------------------------------------------------------------------------------------------
|
|         |---3---|                                                                      |---3---|
| Q       E   E   E   Q       Q        W                                         Q       E   E   E
|------------------------------------------------------------------------------|-----------------------------------------------------------------------------------------------------------------
|------------------------------------------------------------------------------|-----------------------------------------------------------------------------------------------------------------
|------------------------------------------------------------------------------|-----------------------------------------------------------------------------------------------------------------
|-9-------9---9---9---9-------9\-----------------------------------------------|-8-------8---8---8-----------------------------------------------------------------------------------------------
|-6-------6---6---6---6-------6\-----------------------------------------------|-6-------6---6---6-----------------------------------------------------------------------------------------------
|-6-------6---6---6---6-------6\-----------------------------------------------|-6-------6---6---6-----------------------------------------------------------------------------------------------


  Gtr II
                          ~~~~~~~~~~~~~~~           TP  TP     TP TP  TP  TP  TP  TP     TP  TP  TP  TP  TP
  W             Q  Q  Q   H         Q      Q   Q    Q   Q      Q  Q   Q   Q   Q   Q      Q   Q   Q   Q   Q
|---------------4-----------------------------12--|---------------9--11--12--14--12-----14--16--14--16--18--|
|------------------5----------------------12------|-9--11-----12--------------------------------------------|
|-6b8-----------------6--11b13-----11b13----------|---------------------------------------------------------|
|-------------------------------------------------|---------------------------------------------------------|
|-------------------------------------------------|---------------------------------------------------------|
|-------------------------------------------------|---------------------------------------------------------|
|
|                                                       |-3-|                     |-3-|
| Q    Q  Q  Q  Q  Q  Q   Q     Q   Q      Q   Q    Q   E E E  Q  Q   Q   Q   Q   E E E  Q   Q   Q   Q
|-------------------------------------------------|---------------------------------------------------------|
|-------------------------------------------------|---------------------------------------------------------|
|-------------------------------------------------|---------------------------------------------------------|
|-8----8--8--8--8--8--8---8-----8---8------8h==9--|-8---8-8-8--8--8---8---8---6---6-6-6--6---6--------------|
|-6----6--6--6--6--6--6---6-----6---6------6---6--|-9---9-9-9--9--9---9---9---6---6-6-6--6---6---6h==9------|
|-6----6--6--6--6--6--6---6-----6---6------6---6--|-6---6-6-6--6--6---6---6---6---6-6-6--6---6---6h==9------|


   TP TP TP   TP   TP TP TP TP TP TP TP TP TP  TP TP TP TP TPTP TP TP TP TP TP                                                     ~~~     ~
   E  E  E    E    E  E  E  E  E  E  E  E  E   E  E  E  E  E E  E  E  E  E  E E    E  E E  E E  E E  E E E E  E E  E E E S  S S S  E   T T Q
|-18-18-18---18---19-18-16-18-18-18-19-18-16\-----------------------------------|---------------------------------------------------------------|
|---------------------------------------------11-11-11-11-12-9-11-11-11-11-12-9-|-11-12-9h11-9----9---------------------------------------------|
|-------------------------------------------------------------------------------|--------------11---11-9-8h9----8--------------------------8----|
|-------------------------------------------------------------------------------|----------------------------11---11-9-8-9-11-9-8--------9------|
|-------------------------------------------------------------------------------|-------------------------------------------------11--11--------|
|-------------------------------------------------------------------------------|---------------------------------------------------------------|
|
|                                                                                                                                  ~~~
|        |--3---|
|  Q     E E    E  Q     Q     Q     Q     Q      Q     Q    Q     Q     Q         Q    Q    Q    Q    Q   Q    Q    Q   Q         H
|-------------------------------------------------------------------------------|---------------------------------------------------------------|
|------------------------------5----/4-----4------4-----4----4------------------|--4p===0---------2p===0----------------------------------------|
|------------------------------4-----4-----4------4-----4----4------------------|------------3-------------3---------3--------------------------|
|--2-----2-2----2--2-----2-----------------2------2-----2----2------------------|-------------------------------4--------4--------[2]-----------|
|--2-----2-2----2--2-----2-----------------2------2-----2----2-----2-----2------|---------------------------------------------------------------|
|--2-----2-2----2--2-----2-----------------2------2-----2----2-----2-----2------|---------------------------------------------------------------|


     Gtr II
                                                                                 ~~                                                                                ~~~~~
   E   E   E   E   E   E   E   E   E   E   E   E  E  E  E  E  E  E   E  E  E  E  Q     E     E  E    E    E  E     E  Q     Q    E  E  E  E    E    E  E  E  E  E  Q
|--------------------^11h^12------------------------------------11-/16h19p16--------|----------16-----------------------------------------------------------16h19-19b21----|
|----------------^12---------!12-----------------------------12--------------17-----|-16----16------19p==16-------------------------------------------16h19----------------|
|------------^13-----------------!13----------------------13--------------------18--|-18b20-----------------18b20r16---------------------16---17---18----------------------|
|--------^13-------------------------!13---------------13---------------------------|--------------------------------16---------16-17-18-----------------------------------|
|-11h^14---------------------------------!14-!11-11h14------------------------------|-------------------------------------/18----------------------------------------------|
|-----------------------------------------------------------------------------------|--------------------------------------------------------------------------------------|
|
|                                                                                               |--3---|                                  |--3---|
|  Q       Q       Q       Q       Q       Q      Q     Q     Q      Q     Q     Q     Q        E E    E  Q        Q    Q     Q     Q     E E    E  Q     Q     Q       Q
|-----------------------------------------------------------------------------------|--------------------------------------------------------------------------------------|
|-----------------------------------------------------------------------------------|--------------------------------------------------------------------------------------|
|-----------------------------------------------------------------------------------|--------------------------------------------------------------------------------------|
|--8-------8-------8-------8-------8-------8------8-----8-----8------8-----8h====9--|--8--------8-8----8--8--------8----8-----8-----6-----6-6----6--6-----6----------------|
|--6-------6-------6-------6-------6-------6------6-----6-----6------6-----6-----6--|--9--------9-9----9--9--------9----9-----9-----6-----6-6----6--6-----6-----6h======9--|
|--6-------6-------6-------6-------6-------6------6-----6-----6------6-----6-----6--|--6--------6-6----6--6--------6----6-----6-----6-----6-6----6--6-----6-----6h======9--|


  PM-------------------------------------|
  Q  Q     Q  Q   Q   Q  Q  Q   Q  Q  Q  E    Q   Q   Q   Q  Q   Q    Q   Q   Q    Q
|-------------------------------------------|----------------9--12--/15p=12----------------------
|-------------------------------------------|------------11------------------14--/17h============
|----4-----3--4-------6--4--6------8--6--8--|-9h=11h=12------------------------------------------
|-2--------------/4------------/8-----------|----------------------------------------------------
|-------------------------------------------|----------------------------------------------------
|-------------------------------------------|----------------------------------------------------
|
|    |-3-|
| Q  E E E Q  Q   Q   Q  Q  Q   Q  Q  Q  Q    Q   Q   Q   Q  Q   Q    Q   Q   Q    Q
|-------------------------------------------|----------------------------------------------------
|-----------------5--/4--4--4---4--4--------|-2-----------2-----------5------------4-------------
|-----------------4---4--4--4---4--4--------|-0-----------0-----------0------------0-------------
|-2--2-2-2-2--2----------2--2---2--2--------|-2-----------2-----------5------------5-------------
|-2--2-2-2-2--2----------2--2---2--2-----1--|-1---1---1---1--1---1----4---4---4----4-------------
|-2--2-2-2-2--2----------2--2---2--2--2-----|----------------------------------------------------


--------------------------------------------------------------------------------------------------------------------------------TPTP
    Q   Q   Q   Q   E  E  E  E  E  E  E  E  E  E  E  E  E  E E  E E   E E E   E   E E E E E E E E E E E   E   E E E E E E E E E E E
|-/18--18--18--18--18h19-18-16h18-16-14h16-12h14-12-11h12-11-9h11-9-|-7h9-7---6h==7-6-4h6-4-2h4-2-0h2-0-----------------------------|
|-------------------------------------------------------------------|-------------------------------------4h==5-4-2h4-2-------------|
|-------------------------------------------------------------------|---------------------------------------------------3h4-3-1h3-1-|
|-------------------------------------------------------------------|---------------------------------------------------------------|
|-------------------------------------------------------------------|---------------------------------------------------------------|
|-------------------------------------------------------------------|---------------------------------------------------------------|
|
|                                                                         |--3--|                     |--3--|
|   Q   Q   Q   Q   Q     Q     Q     Q     Q     Q     Q    Q        Q   E E   E Q   Q   Q   Q   Q   E E   E Q   Q   Q   Q
|-------------------------------------------------------------------|---------------------------------------------------------------|
|-------------------------------------------------------------------|---------------------------------------------------------------|
|-------------------------------------------------------------------|---------------------------------------------------------------|
|---8---8---8---8---8-----8-----8-----8-----8-----8-----8h===9------|-8---8-8---8-8---8---8---8---6---6-6---6-6---6-----------------|
|---6---6---6---6---6-----6-----6-----6-----6-----6-----6----6------|-9---9-9---9-9---9---9---9---6---6-6---6-6---6---6h==9---------|
|---6---6---6---6---6-----6-----6-----6-----6-----6-----6----6------|-6---6-6---6-6---6---6---6---6---6-6---6-6---6---6h==9---------|


  TPTPTP  TP  TPTPTPTPTPTP TPTPTPTPTPTPTPTPTPTPTPTPTPTP                              ~~~
  E E E   E   E E E E E E  E E E E E E E E E E E E E E   Q  Q  Q  Q  Q  Q  Q  Q  Q   H
|------------------------------------------------------|-2p=0------------------------------|
|------------------------------------------------------|-------2--5p=4--2-----2------------|
|------------------------------------------------------|-------------------3-----3--[4]----|
|-4h6-4---2h==4-2-1h2-1--------------------------------|-----------------------------------|
|-----------------------6h=8-6-4h6-4-1h2-1-------------|-----------------------------------|
|------------------------------------------4h6-4-2h4-2-|-----------------------------------|
|
|                                                                                    ~~~
|     |--3--|
| Q   E E   E Q   Q   Q    Q   Q   Q   Q   Q   Q   Q     Q  Q  Q  Q  Q  Q  Q  Q  Q   H
|------------------------------------------------------|-----------------------------------|
|---------------------5---/4---4---4---4---4-----------|-4p=0-----2p=0---------------------|
|---------------------4----4---4---4---4---4-----------|-------3--------3-----3------------|
|-2---2-2---2-2---2------------2---2---2---2-----------|-------------------4-----4--[2]----|
|-2---2-2---2-2---2------------2---2---2---2---2---2---|-----------------------------------|
|-2---2-2---2-2---2------------2---2---2---2---2---2---|-----------------------------------|


     |-3-|                                   |-3-|
  Q  E E E Q Q Q  Q  Q  Q  Q  Q  Q  Q     Q  E E E Q Q Q  Q  Q  Q  Q  Q  Q
|--------------------------------------|------------------------------------|
|--------------------------------------|------------------------------------|
|--------------------------------------|------------------------------------|
|-2--2-2-2-2-2-4--4--4--2--2--2--2--2--|-/4--4-4-4-4-4-6--6--6--4--4--4--4--|
|-2--2-2-2-2-2-2--2--2--2--2--2--2--2--|-/4--4-4-4-4-4-4--4--4--4--4--4--4--|
|-2--2-2-2-2-2-2--2--2--2--2--2--2--2--|-/4--4-4-4-4-4-4--4--4--4--4--4--4--|


  H    Q  Q  Q  Q  Q  Q  Q  Q  Q    Q  Q  Q  Q  Q  Q  Q  Q  Q  Q  Q  Q  Q  Q  Q
|---------------------------------|-0--0--0--0--0--0--0--0--0--0--0--0--0--0--0---|
|---------------------------------|-9--9--9--9--9--9--9--9--9--9--9--9--9--9--9---|
|-8----------------------6-----6--|-8--8--8--8--8--8--8--8--8--8--8--8--8--8--8---|
|-6----6--6--6--9--8--8--6--9--8--|-9--9--9--9--9--9--9--9--9--9--9--9--9--9--9---|
|-6----6--6--6--6--6--6--6--6--6--|-----------------------------------------------|
|-6----6--6--6--6--6--6--6--6--6--|-----------------------------------------------|



Duration Legend
---------------
W - whole; H - half; Q - quarter; E - 8th; S - 16th; T - 32nd; X - 64th; a - acciaccatura
+ - note tied to previous; . - note dotted; .. - note double dotted
Uncapitalized letters represent notes that are staccato (1/2 duration)
Irregular groupings are notated above the duration line
Duration letters will always appear directly above the note/fret number it represents the
duration for.  Duration letters with no fret number below them represent rests.  Multi-
bar rests are notated in the form Wxn, where n is the number of bars to rest for.  Low
melody durations appear below the staff

Tablature Legend
----------------
 h   - hammer-on
 p   - pull-off
 b   - bend
 pb  - pre-bend
 r   - bend release (if no number after the r, then release immediately)
 /\  - slide into or out of (from/to "nowhere")
 s   - legato slide
 S   - shift slide
<n> - natural harmonic
[n]  - artificial harmonic
n(n) - tapped harmonic
 ~   - vibrato
 tr  - trill
 T   - tap
 TP  - trem. picking
 PM  - palm muting
\n/  - tremolo bar dip; n = amount to dip
 \n  - tremolo bar down
 n/  - tremolo bar up
/n\  - tremolo bar inverted dip
 =   - hold bend; also acts as connecting device for hammers/pulls
 <> - volume swell (louder/softer)
 x   - on rhythm slash represents muted slash
 o   - on rhythm slash represents single note slash

Misc Legend
-----------
 |  - bar
||  - double bar
||o - repeat start
o|| - repeat end
*|  - double bar (ending)
 :  - bar (freetime)
 $  - Segno
 &  - Coda
Tempo markers - <E/E./Q/Q./H/H.> = BPM(8/16=s8/s16), where s8 = swing 8ths, s16 = swing 16ths


** Generated using Power Tab Editor by Brad Larsen: The Official Power Tab Web Site