#----------------------------------PLEASE NOTE---------------------------------#
#This file is the author's own work and represents their interpretation of the #
#song. You may only use this file for private study, scholarship, or research. #
#------------------------------------------------------------------------------#

STAR IN MY SKY
As recorded by Blood Vacuum
(From the 2005 Album HOPELESS IN C MINOR)

Transcribed by MC

Words by M.Calestino Music by Matthew Calestino
Arranged by MC


Gtr I (C G C F A D) - 'Untitled'
Gtr II (C G C F A D) - 'Untitled'

  Q=100
 4/4
  Gtr I
    PM~~                             PM| ~   PM------|                    PM| ~
  E E Q.   E E E E E E   E E E E E E E E Q   E E E E E E E E E E  S   E   E E Q  E E E E E E E E E E E E E E
|---------------------------------------------------------------------------------------------------------------|
|----------------------------------------------------------2---2h=3p==2-----------------------------------------|
|------------------------7-7---------------------------2---2---2-(2)-(2)---------------------7-7----------------|
|-4-5S7----4-4-----------4-4---------4-7-5--/2-2-2-2-2-2---5-5-5-(5)-(5)--4-5S7--4-4---------4-4-----4---4------|
|-5-7S9----5-5-----------5-5---------5-9-7--/4-4-------0-0-0-0------------5-7S9--5-5---------5-5-----5---5------|
|--------------0-0-0-0-------0-0-0-0-------------------------------------------------0-0-0-0-----0-0---0---0----|
|
|                      GGtr II
|---------------------------------------------------------------------------------------------------------------|
|---------------------------------------------------------------------------------------------------------------|
|---------------------------------------------------------------------------------------------------------------|
|---------------------------------------------------------------------------------------------------------------|
|---------------------------------------------------------------------------------------------------------------|
|---------------------------------------------------------------------------------------------------------------|


  Q=82
  Gtr I
                                         ~
    E  E  E E   E  E E   E  E E E E  E E Q E
|----------------------|---------------------|
|----------------------|---------------------|
|-/11-11--9----/9--9-7-|---/7-7-6---/6-6-6-6-|
|-/12-12-11---/11-11-9-|---/9-9-7---/7-7-5-5-|
|---0--0----0------0---|-0----0---0----0-----|
|----------------------|---------------------|
|
| Gtr II
|                                        ~
|   E  E  E E   E  E E   E  E E E E  E E Q E
|----------------------|---------------------|
|-/12-12-10---/10-10-8-|---/8-8-7---/7-7-5-5-|
|----------------------|---------------------|
|--/9--9--7-x--/7--7-5-|-x-/5-5-4-x-/4-4-2-2-|
|----------------------|---------------------|
|----------------------|---------------------|


  E E E E E E  S   S   S.    E E S S E
|-------------------------|--------------|
|-7-------------------<7>-|-^7-7h8p7-----|
|-7---------------<7>-----|-^7-7---7-----|
|-0-----------<7>---------|-^0-------0---|
|-0-----------------------|-^0-------0---|
|-0-0-0-0-0-0-------------|-^0-0-----0---|
|
|-------------------------|--------------|
|-------------------------|--------------|
|-------------------------|--------------|
|-------------------------|--------------|
|-------------------------|--------------|
|-------------------------|--------------|


  Q=62
        ~~~                 PM----|
  S S   E.  S S S S S S S S S S S S     E  E   E   S S S S S S S S S S S
|------------------------------------|-----------------------------------|
|------------------------------------|-----------------------------------|
|-----------------------7-7----------|-/9--9-----------------------------|
|-4-5--/7--/4-4---------4-4-4-4-4-4--|-/9--9---7---6-6-6-6-0-2-2-2-2-4---|
|-5-7--/9--/5-5---------5-5-5-5-5-5--|----11--/9--/7-7-7-7-0-2-2-2-2-2---|
|---------------0-0-0-0--------------|---------------------0h2-2-2-2-2-0-|


  PM| ~~
  S S E. S S S S S S S S S S S   S S E
|------------------------------|--------|
|------------------------------|--------|
|--------------------7-7-------|--------|
|-4-5S7--4-4---------4-4-----4-|---4----|
|-5-7S9--5-5---------5-5-----5-|---5----|
|------------0-0-0-0-----0-0---|-0---0--|


                                         ~
    E  E  E E   E  E E E    E E E E  E E Q E    E E E E E E E E   E E E E E E
|------------------------|--------------------|-----------------|--------------|
|------------------------|--------------------|-7-7---------7-7-|-7-7----------|
|-/11-11--9----/9--9-7---|-/7-7-6---/6-6-6-6--|-7-7---------7-7-|-5-5----------|
|-/12-12-11---/11-11-9---|-/9-9-7---/7-7-5-5--|-0-0---------0-0-|-0-0----------|
|---0--0----0------0---0-|----0---0----0------|-0-0---------0-0-|-0-0----------|
|------------------------|--------------------|-0-0-0-0-0-0-0-0-|-0-0-0-0-0-0--|


  Gtr II
  E E E E E E E E  E E E  E E E E S S S E E
|-------------------------------------------|-----------------|--------------|
|-------------------------3-5-7-8---------8-|-----------------|--------------|
|---------------------------------6h9-6-----|-----------------|--------------|
|----------------------0--4-5-7-9-------7---|-----------------|--------------|
|-------------------------------------------|-----------------|--------------|
|-0-0-5-5-5-5-5-5--5-5----------------------|-----------------|--------------|
|
| E E E E E E E E  E E E  E E E E S S S E E   E E E E E E E E   E E E E E E
|-----3-3-3-------^3------------0-0h5-0-----|-----------------|--------------|
|-7-7-0-0-0-------^0---3------3---------3---|-7-7---------7-7-|-7-7----------|
|-5-5-5-0-0-------^0---2----0-------------0-|-7-7---------7-7-|-5-5----------|
|-0-0-0-0-5-------^5---0-/4-----------------|-0-0---------0-0-|-0-0----------|
|-0-0---------------------------------------|-0-0---------0-0-|-0-0----------|
|-0-0-------5-5-5-^5-5----------------------|-0-0-0-0-0-0-0-0-|-0-0-0-0-0-0--|


  E E E E E E E E    E E E  E E E E S S S E E
|-----------------|---------------------------------------|--------------------|
|-----------------|---------3-5-7-8---------8-------------|--------------------|
|-----------------|-----------------6h9-6-----------------|--------------------|
|-----------------|------0--4-5-7-9-------7---------------|--------------------|
|-----------------|---------------------------------------|--------------------|
|-0-0-5-5-5-5-5-5-|--5-5----------------------------------|--------------------|
|
| E E E E E E E E    E E E  E E E E S S S E E E E E E E E   E  E  E E E E E E
|-----3-3-3-------|-^3------------0-0h5-0-----------------|--------------------|
|-7-7-0-0-0-------|-^0---3------3---------3---7-7---------|-7--7--7-7----------|
|-5-5-5-0-0-------|-^0---2----0-------------0-7-7---------|-7--7--5-5----------|
|-0-0-0-0-5-------|-^5---0-/4-----------------0-0---------|-0--0--0-0----------|
|-0-0-------------|---------------------------0-0---------|-0--0--0-0----------|
|-0-0-------5-5-5-|-^5-5----------------------0-0-0-0-0-0-|-0--0--0-0-0-0-0-0--|


  E E E E E E E E    E E E  E E E E S S   S E E
|-----------------|---------------------|----------|
|-----------------|---------3-5-7-8-----|-----8----|
|-----------------|-----------------6h9-|-6--------|
|-----------------|------0--4-5-7-9-----|---7------|
|-----------------|---------------------|----------|
|-0-0-5-5-5-5-5-5-|--5-5----------------|----------|
|
| E E E E E E E E    E E E  E E E E S S   S E E
|-----3-3-3-------|-^3------------0-0h5-|-0--------|
|-7-7-0-0-0-------|-^0---3------3-------|---3------|
|-5-5-5-0-0-------|-^0---2----0---------|-----0----|
|-0-0-0-0-5-------|-^5---0-/4-----------|----------|
|-0-0-------------|---------------------|----------|
|-0-0-------5-5-5-|-^5-5----------------|----------|


  PM|   ~~~                           PM|    PM--------|
  S S   E.  S S S S S S S S S   S S S S S E. S S S S S S S S
|-----------------------------|------------------------------|
|-----------------------------|------------------------------|
|-----------------------7-7---|--------------------------2---|
|-4-5--/7--/4-4---------4-4---|-------4-7-5\-2-2-2-2-2-2-2---|
|-5-7--/9--/5-5---------5-5---|-------5-9-7\-4-4-4-4-4-4-0-0-|
|---------------0-0-0-0-----0-|-0-0-0------------------------|


            PM| ~~
  S S S T S S S E. S S S S S S S   S S S S S S S
|--------------------------------|-----------------|
|-2---2h3p2----------------------|-----------------|
|-2---2------------------------7-|-7---------------|
|-5-5-5-----4-5S7--4-4---------4-|-4-----4---4-----|
|-0-0-------5-7S9--5-5---------5-|-5-----5---5-----|
|----------------------0-0-0-0---|---0-0---0---0---|


                                         ~
    E  E  E E   E  E E E    E E E E  E E Q
|------------------------|------------------|
|------------------------|------------------|
|-/11-11--9----/9--9-7---|-/7-7-6---/6-6-6--|
|-/12-12-11---/11-11-9---|-/9-9-7---/7-7-5--|
|---0--0----0------0---0-|----0---0----0----|
|------------------------|------------------|
|
|                                        ~
|   E  E  E E   E  E E E    E E E E  E E Q
|------------------------|------------------|
|-/12-12-10---/10-10-8---|-/8-8-7---/7-7-5--|
|------------------------|------------------|
|--/9--9--7-x--/7--7-5-x-|-/5-5-4-x-/4-4-2--|
|------------------------|------------------|
|------------------------|------------------|


      PM------|
  E E E E E E S  S   S   S.    E E S S E
|---------------------------|-------------|
|---7-------------------<7>-|-^7-7h8p7----|
|-6-7---------------<7>-----|-^7-7---7----|
|-5-0-0-0-0-0-0-<7>---------|-^0-------0--|
|---0-0-0-0-0-0-------------|-^0-------0--|
|---0-0-0-0-0-0-------------|-^0-0-----0--|
|
| E
|---------------------------|-------------|
|-5-------------------------|-------------|
|---------------------------|-------------|
|-2-------------------------|-------------|
|---------------------------|-------------|
|---------------------------|-------------|


       ~~~                         PM
  S S  E.  S S S S S S S S S S S   S  E  E  E S S S S S S S S S
|--------------------------------|------------------------------|
|--------------------------------|------------------------------|
|----------------------7-7-------|---/9--9----------------------|
|-4-5-/7--/4-4---------4-4-------|-4-/9--9--7---------0-2-2-2-2-|
|-5-7-/9--/5-5---------5-5-5-5-5-|-5----11-/9-7-7-7-7-0-2-2-2-2-|
|--------------0-0-0-0-----------|--------------------0h2-2-2-2-|


      PM| ~~
  S S S S E. S S S S S S S S S   S S S S E
|------------------------------|------------|
|------------------------------|------------|
|------------------------7-7---|------------|
|-4---4-5S7--4-4---------4-4---|---4---4----|
|-2---5-7S9--5-5---------5-5---|---5---5----|
|-2-0------------0-0-0-0-----0-|-0---0---0--|


                                         ~
    E  E  E E   E  E E E    E E E E  E E Q    E
|------------------------|------------------|------|
|------------------------|------------------|------|
|-/11-11--9----/9--9-7---|-/7-7-6---/6-6-6--|-6----|
|-/12-12-11---/11-11-9---|-/9-9-7---/7-7-5--|-5----|
|---0--0----0------0---0-|----0---0----0----|------|
|------------------------|------------------|------|


  E E  E E  E E S  S S S   E E E E E E S S S S
|--------0------0--------|-------0-----0-------|
|-----10---10-----10-----|-----9---9-----9-----|
|---7---------7------7---|---7-------7-----7---|
|-0--------------------0-|-0-----------------0-|
|------------------------|---------------------|
|------------------------|---------------------|


  E E E E E E S S S S   E E E E E E S S S S
|-------0-----0-------|-------0-----0--------|
|-----7---7-----7-----|-----9---9-----9------|
|---7-------7-----7---|---7-------7-----7----|
|-0-----------------0-|-0-----------------0--|
|---------------------|----------------------|
|---------------------|----------------------|


  E E  E E  E E S  S S S   E E  E  E  E E  S  S S S
|--------0------0--------|--------12------12--------|
|-----10---10-----10-----|-----12----12------12-----|
|---7---------7------7---|---9----------9-------9---|
|-0--------------------0-|-0----------------------0-|
|------------------------|--------------------------|
|------------------------|--------------------------|


  E  E  E  E  E  E  E  E   E  E  E  E  E  E  E  E
|---------14-------14----|---------14-------14----|
|------12----12-------12-|------12----12-------12-|
|---11----------11-------|---13----------13-------|
|-0----------------------|-0----------------------|
|------------------------|------------------------|
|------------------------|------------------------|


  E  E  E  E  E  E  E  E
|---------14-------14----|----|
|------12----12-------12-|----|
|---12----------12-------|----|
|-0----------------------|----|
|------------------------|----|
|------------------------|----|



Duration Legend
---------------
W - whole; H - half; Q - quarter; E - 8th; S - 16th; T - 32nd; X - 64th; a - acciaccatura
+ - note tied to previous; . - note dotted; .. - note double dotted
Uncapitalized letters represent notes that are staccato (1/2 duration)
Irregular groupings are notated above the duration line
Duration letters will always appear directly above the note/fret number it represents the
duration for.  Duration letters with no fret number below them represent rests.  Multi-
bar rests are notated in the form Wxn, where n is the number of bars to rest for.  Low
melody durations appear below the staff

Tablature Legend
----------------
 h   - hammer-on
 p   - pull-off
 b   - bend
 pb  - pre-bend
 r   - bend release (if no number after the r, then release immediately)
 /\  - slide into or out of (from/to "nowhere")
 s   - legato slide
 S   - shift slide
<n> - natural harmonic
[n]  - artificial harmonic
n(n) - tapped harmonic
 ~   - vibrato
 tr  - trill
 T   - tap
 TP  - trem. picking
 PM  - palm muting
\n/  - tremolo bar dip; n = amount to dip
 \n  - tremolo bar down
 n/  - tremolo bar up
/n\  - tremolo bar inverted dip
 =   - hold bend; also acts as connecting device for hammers/pulls
 <> - volume swell (louder/softer)
 x   - on rhythm slash represents muted slash
 o   - on rhythm slash represents single note slash

Misc Legend
-----------
 |  - bar
||  - double bar
||o - repeat start
o|| - repeat end
*|  - double bar (ending)
 :  - bar (freetime)
 $  - Segno
 &  - Coda
Tempo markers - <E/E./Q/Q./H/H.> = BPM(8/16=s8/s16), where s8 = swing 8ths, s16 = swing 16ths


** Generated using Power Tab Editor by Brad Larsen: The Official Power Tab Web Site