#----------------------------------PLEASE NOTE---------------------------------#
#This file is the author's own work and represents their interpretation of the #
#song. You may only use this file for private study, scholarship, or research. #
#------------------------------------------------------------------------------#

NON MI AMA' PIU
As recorded by Blood Vacuum
(From the 2004 Album HOPELESS IN C MINOR)

Transcribed by M.Calestino

Words by M. Calestino Music by Matthew Calestino
Arranged by M.Calestino


Gtr I (D# A D G B E) - 'acoustic'
Gtr II (D# A D G B E) - 'forza morte'
Gtr III (D# A D G B E) - 'vilolin'
Gtr IV (D# A D G B E) - 'clarinet'
Gtr V (D# A D G B E) - 'steel guitar'
Gtr VI (D# A D G B E) - 'piano'

  Q=88
 4/4
  Gtr I
  E  E   E   E  E E E E   E  E   E   E  E E E E
|-----------------------|-----------------------|
|------------4------4---|-3----------3------3---|
|--------0------0-----0-|----0----------0-----0-|
|----1------------1-----|--------1--------1-----|
|-3-(3)-(3)-(3)---------|-3-(3)-(3)-(3)---------|
|-----------------------|-----------------------|


  E  E   E   E  E E E E   E  E   E   E  E E E E
|---------------1-------|---------------1-5-6-5--|
|------------1----1-----|------------1-----------|
|--------3----------3---|--------2--------5-7-5--|
|----3----------------3-|----3-------------------|
|-1-(1)-(1)-(1)---------|-0-(0)-(0)-(0)----------|
|-----------------------|------------------------|


  Q=88
 4/4
  Gtr III
  <                       <
                          ~
  W                       W
|-----------------------|-----------------------|
|-4---------------------|-8---------------------|
|-----------------------|-----------------------|
|-----------------------|-----------------------|
|-----------------------|-----------------------|
|-----------------------|-----------------------|
|
| Gtr I
| E  E   E   E  E E E E   E  E   E   E  E E E E
|-----------------------|-----------------------|
|------------4------4---|-3----------3------3---|
|--------0------0-----0-|----0----------0-----0-|
|----1------------1-----|--------1--------1-----|
|-3-(3)-(3)-(3)---------|-3-(3)-(3)-(3)---------|
|-----------------------|-----------------------|


                          ~
  H             H         W
|-----------------------|------------------------|
|-6-------------3-------|-1----------------------|
|-----------------------|------------------------|
|-----------------------|------------------------|
|-----------------------|------------------------|
|-----------------------|------------------------|
|
| E  E   E   E  E E E E   E  E   E   E  E E E E
|---------------1-------|---------------1-5-6-5--|
|------------1----1-----|------------1-----------|
|--------3----------3---|--------2--------5-7-5--|
|----3----------------3-|----3-------------------|
|-1-(1)-(1)-(1)---------|-0-(0)-(0)-(0)----------|
|-----------------------|------------------------|


  Q=94
  Gtr IV
   <
   ~~~                       ~~
   H.            Q      Q    H        Q
|-11------------15---|-13---10-------18---|
|--------------------|--------------------|
|--------------------|--------------------|
|--------------------|--------------------|
|--------------------|--------------------|
|--------------------|--------------------|
|
| Gtr I
|  E  E E E E E  E E    E E  E E E E  E E
|--3-----------------|--------------------|
|-----4-----4--------|--3--------3--------|
|-------5-----5------|----0--------0------|
|---------5------5---|-------3--------3---|
|--3--------3--------|--1------1-1------1-|
|------------------0-|--------------------|


          ~~~                  ~~
   Q      H           Q        W
|-22-----19----------13-----|-11-------------|
|---------------------------|----------------|
|---------------------------|----------------|
|---------------------------|----------------|
|---------------------------|----------------|
|---------------------------|----------------|
|
|  E  E   E   E   Q   E  E     E E E E Q  Q
|----------------^3---------|----------3-----|
|--6p=0--(0)-----^3---3h=4--|--------4-------|
|---------0--(0)-^0---4-(4)-|------5---------|
|-------------0--^0---------|----5-----------|
|----------------^2---------|--3-------------|
|--4-(4)--------------4-(4)-|----------------|


   <                  <
   ~~~~~~~~~~~~~~~~~~~~~~
   W                  H.            Q
|-11---------------|-10------------15---|
|------------------|--------------------|
|------------------|--------------------|
|------------------|--------------------|
|------------------|--------------------|
|------------------|--------------------|
|
| Gtr I
|  E E E E E E E E    E  E E E E E  E E
|--3---------------|--------------------|
|----4-----4-------|--3--------3--------|
|------5-----5-----|-----0-------0------|
|--------5-----5---|-------3--------3---|
|--3-------3-------|--1------1-1------1-|
|----------------0-|--------------------|


                                        <
                                        ~~
   Q      H           Q        H        H
|-16-----13-----------------|----------23-----|
|--------------------15-----|-16--------------|
|---------------------------|-----------------|
|---------------------------|-----------------|
|---------------------------|-----------------|
|---------------------------|-----------------|
|
|  E  E   E   E   Q   E  E     E E E E  Q  Q
|----------------^3---------|-----------3-----|
|--6p=0--(0)-----^3---3h=4--|--------4--------|
|---------0--(0)-^0---4-(4)-|------5----------|
|-------------0--^0---------|----5------------|
|----------------^2---------|--3--------------|
|--4-(4)--------------4-(4)-|-----------------|


  Gtr III
           ~
   H       H         Q   H       Q
|------------------|-8---------------|
|-11-------9-------|-----8-----------|
|------------------|-------------8---|
|------------------|-----------------|
|------------------|-----------------|
|------------------|-----------------|
|
|  E E E E E E E E   E E E E E E E E
|------------------|-----------------|
|------------------|-----------------|
|--3-------3---1---|-0-------0-------|
|----0---0---0---0-|---1-------1-----|
|--1---1-----------|-----3-------3---|
|------------------|-0-----0-------0-|


                              ~
   Q      H           Q       W
|---------------------------|--------------------------|
|---------------------9-----|-8------------------------|
|-10-----12-----------------|--------------------------|
|---------------------------|--------------------------|
|---------------------------|--------------------------|
|---------------------------|--------------------------|
|
|  E  E   E  E  E  E  S S E   E  E   E   E   Q    Q
|---------------------------|----------------8---(8)---|
|---------------------------|------------8--(8)--(8)---|
|------------0-----0--------|----5h==8--(8)-(8)--(8)---|
|-----0---------------6h8p6-|-5-(5)-(5)-(5)-(5)--(5)---|
|--5-(5)--6-(6)-8-(8)-------|--------------------------|
|---------------------------|---------------------0----|


  Gtr III
   W                      H           H
|-11-------------------|-10-------------------|
|----------------------|-------------12-------|
|----------------------|----------------------|
|----------------------|----------------------|
|----------------------|----------------------|
|----------------------|----------------------|
|
| Gtr IV
|              ~~                     ~~
|  E  E  E  E  H          E  E  E  E  H
|-20-15-------15-------|-22-19----------------|
|-------16-18----------|-------21-18----------|
|----------------------|-------------19-------|
|----------------------|----------------------|
|----------------------|----------------------|
|----------------------|----------------------|
|
| Gtr I
|  E  E  E  E  E E E E    E  E  E  E  E E E E
|----------------------|----------------------|
|----------------------|--------------0-------|
|--8--------8------8---|--7--------7----7-----|
|-----5--------5-----5-|-----6------------6---|
|--------6-------6-----|--------8-----------8-|
|----------------------|----------------------|


                                                      ~~
   H           H             H           H            W
|-------------------------|-15---------------------|-------|
|--9-----------8----------|-------------12---------|-13----|
|-------------------------|------------------------|-------|
|-------------------------|------------------------|-------|
|-------------------------|------------------------|-------|
|-------------------------|------------------------|-------|
|
|                                                     <
|                                                     ~~
|  E  E  E  E  E  E  E  E    E  E  E  E  Q      Q     W
|-13----13-16-15----20-16-|----16-15---------------|-------|
|----13----------16-------|-15-------18-16-----15--|-16----|
|-------------------------|------------------------|-------|
|-------------------------|------------------------|-------|
|-------------------------|------------------------|-------|
|-------------------------|------------------------|-------|
|
|  E  E  E  E  E  E  E  E    E  E  E  E  E.  Q        W
|-------------------------|-----------------^3-----|-------|
|-------------------------|--------------0--^3-----|--4----|
|-----------1-----------0-|-----------0-----^4-----|--5----|
|--------3-----------1----|--------6--------^0-----|--5----|
|-----3-----------1-------|-----5------------------|--3----|
|--2-----------0----------|--4---------------------|-------|


  Gtr III
             ~                         ~
  W          W          H     H        H     H
|----------|----------|--------------|------10----|
|-4--------|-8--------|-6-----3------|-1----------|
|----------|----------|--------------|------------|
|----------|----------|--------------|------------|
|----------|----------|--------------|------------|
|----------|----------|--------------|------------|
|
| Gtr II
| W          W          H.       E E   H     H
|----------|----------|--------------|------------|
|----------|----------|--------------|-------3----|
|----------|----------|--------------|-------0----|
|-1--------|-5--------|-3--------0h1-|-------0----|
|-3--------|-6--------|-0--------1-1-|-3----------|
|-4--------|-4--------|-2--------2-2-|-4----------|


  Gtr III
              ~~
  W           W           E  E  E  E  Q   Q
|-8--------|-10--------|-13-10----13-16--18--|
|----------|-----------|-------12------------|
|----------|-----------|---------------------|
|----------|-----------|---------------------|
|----------|-----------|---------------------|
|----------|-----------|---------------------|
|
| Gtr II
| W           W           H           H
|----------|-----------|---------------------|
|----------|-----------|---------------------|
|----------|-----------|---------------------|
|-1--------|--0--------|--3-----------6------|
|-3--------|--1--------|--5-----------5------|
|-4--------|--0--------|--4-----------4------|


   Q   Q   T  T T  T  S  S  S  s  s  s
|-----20-------------10-11-13-15-16-18-|
|-13------------9-11-------------------|
|----------8-12------------------------|
|--------------------------------------|
|--------------------------------------|
|--------------------------------------|
|
|      ~~~ PM-----------------------|
|  Q   Q   T  T T  T  S  S  S  s  s  s
|--------------------------------------|
|--------------------------------------|
|-----[5]------------------------------|
|--5--[5]----------------------5--6--8-|
|--3------------------5--6--8----------|
|--0-------0h=4-5h=7-------------------|


  Gtr III
        ~                                    ~~~
   H    H      Q  H     Q     Q   H    Q     Q    E  E  Q   Q
|------------|-8-----------|--------------|------15-16-15------|
|-11----9----|----8--------|-----------9--|--8-------------16--|
|------------|----------8--|-10--12-------|--------------------|
|------------|-------------|--------------|--------------------|
|------------|-------------|--------------|--------------------|
|------------|-------------|--------------|--------------------|
|
| Gtr II
|                    ~                       ~~~
|  H    H      H     H        Q   H    Q     Q    e  e  Q   Q
|------------|-------------|--------------|--------------------|
|------------|-------8-----|--------------|--------------------|
|------------|-------8-----|-----------7--|-------0--1--0------|
|--8----3----|-5-----------|--3---5----6--|-------1--3--1------|
|--5----1----|-3-----------|--5--------5--|-[6]---3--3--3---3--|
|--7----2----|-4-----------|--4-----------|-[4]-------------4--|


  Q=88
  Gtr III
   ~~~~~~~~~~~~~~~~~~~~~~~~~~~~~~~~~~~~~
   H                                  H
|-11-------------------------------|-10----------------------------|-|
|----------------------------------|-------------------------------|-|
|----------------------------------|-------------------------------|-|
|----------------------------------|-------------------------------|-|
|----------------------------------|-------------------------------|-|
|----------------------------------|-------------------------------|-|
|
| Gtr II
|  |-3-|   |-3-|   |-3-|   |-3-|      |-3-|   |-3-|   |-3-|
|  s s s S s s S S s s s S s s s S    s s s S s s s S s s s S  Q
|----------------------------------|-------------------------------|-|
|----------------------------------|-------------------------------|-|
|--8-8-8---8-8-8---8-8-8---8-8-8---|--7-7-7---7-7-7---7-7-7----7---|-|
|--5-5-5---5-5-5---5-5-5---5-5-5---|--6-6-6---6-6-6---9-9-9---[9]--|-|
|--6-6-6---6-6-6---6-6-6---6-6-6---|--8-8-8---8-8-8---8-8-8----8---|-|
|--0-0-0-x-0-0-0-x-0-0-0-x-0-0-0-x-|--------x-------x-------x------|-|


  Gtr III
   Q   Q   Q   W
|-15--13------------|
|---------15--13----|
|-------------------|
|-------------------|
|-------------------|
|-------------------|
|
| Gtr II
|  Q   Q   Q   W
|-------------------|
|----------0--------|
|--1---0---0---5----|
|--3---1---6---5----|
|--3---1---5---3----|
|--2---0---4---0----|


  Q=70
 6/2
  Gtr V
  S  S   S   S  S S   S  S   S   S  S S   S S S S S S   S S S S S S
|-------------------|------------3------|-------6-----|-5-----3-----|
|------------3------|--------3------3---|-----3---3---|---3-----3---|
|--------3------3---|----3------------3-|---3-------3-|-----3-----3-|
|----0------------0-|-------------------|-------------|-------3-----|
|-------------------|-------------------|-6-----------|-------------|
|-4-(4)-(4)-(4)-----|-6-(6)-(6)-(6)-----|-------------|-4-----------|


  S S S S S S   S S S S S S   S S S S S S
|-------------|-------------|-------------|
|-------1-----|---------3-4-|-------3-----|
|-----3---3---|-------3-----|-----3---3---|
|-1h3-------3-|-----3-------|---0-------0-|
|-------------|---0-------3-|-------------|
|-0-----------|-2-----------|-4-----------|


  S S S S S S   S S S S S S   S S S S S S
|-------3-----|-------6-----|-5-----3-----|
|-----3---3---|-----3---3---|---3-----3---|
|---3-------3-|---3-------3-|-----3-----3-|
|-------------|-------------|-------3-----|
|-------------|-6-----------|-------------|
|-6-----------|-------------|-4-----------|


  S S S S S S   S S S S S S   S S S S S S
|-------------|-------------|-------------|
|-------1-----|---------3-4-|-------3-----|
|-----3---3---|-------3-----|-----3---3---|
|-1h3-------3-|-----3-------|---0-------0-|
|-------------|---0-------3-|-------------|
|-0-----------|-2-----------|-4-----------|


  S S S S S S   S S S S S S   S S S S S S
|-------3-----|-------6-----|-5-----3-----|
|-----3---3---|-----3---3---|---3-----3---|
|---3-------3-|---3-------3-|-----3-----3-|
|-------------|-------------|-------3-----|
|-------------|-6-----------|-------------|
|-6-----------|-------------|-4-----------|


  S S S S S S   S S S S S S   S S S S S S
|-------------|-------------|-------------|
|-------1-----|---------3-4-|-------3-----|
|-----3---3---|-------3-----|-----3---3---|
|-1h3-------3-|-----3-------|---0-------0-|
|-------------|---0-------3-|-------------|
|-0-----------|-2-----------|-4-----------|


  S S S S S S   S S S S S S   S S S S S S
|-------3-----|-------6-----|-5-----3-----|
|-----3---3---|-----3---3---|---3-----3---|
|---3-------3-|---3-------3-|-----3-----3-|
|-------------|-------------|-------3-----|
|-------------|-6-----------|-------------|
|-6-----------|-------------|-4-----------|


  S S S S S S   S S S S S W
|-------------|----------------|
|-------1-----|---------3-4----|
|-----3---3---|-------3--------|
|-1h3-------3-|-----3----------|
|-------------|---0-------3----|
|-0-----------|-2--------------|


  Q=76
  Gtr VI
  e  e   e   e  e e e E   e e e e e e e E   e e e e e e e E   e e e e e e e E
|-3--3---3---3--3-3-3-3-|-1-1-1-1-1-1-1-1-|-1-1-1-1-1-1-1-1-|-1-1-1-1-1-1-1-1-|
|-----------------------|-----------------|-0-0-0-0-0-0-0-0-|-0-0-0-0-0-0-0-0-|
|-3--3---3---3--3-3-3-3-|-3-3-3-3-3-3-3-3-|-----------------|-1-1-1-1-1-1-1-1-|
|-1--1---1---1--1-1-1-1-|-1-1-1-1-1-1-1-1-|-1-1-1-1-1-1-1-1-|-0-0-0-0-0-0-0-0-|
|-----------------------|-----------------|-----------------|-----------------|
|-0-(0)-(0)-(0)---------|-----------------|-----------------|-----------------|


  e e e e e e e E   e e e e e e e E
|-4-4-4-4-4-4-4-4-|-1-1-1-1-1-1-1-1-|
|-6-0-0-6-6-0-0-6-|-3-0-0-3-3-0-0-3-|
|-----------------|-----------------|
|-----------------|-----------------|
|-----------------|-----------------|
|-5-5-5-5-5-5-5-5-|-2-2-2-2-2-2-2-2-|


  e e e e e e e E    e  e  e  e  e  e  e  E
|-6-6-6-6-6-6-6-6-|-10-10-10-10-10-10-10-10---|
|-8-8-8-8-8-8-8-8-|--------------0--0--0--0---|
|-----------------|---------------------------|
|-----------------|---------------------------|
|-----------------|---------------------------|
|-7-7-7-7-7-7-7-7-|--7--7--7--7--7--7--7--7---|


  Q=76
  e e e e e e e E   e e e e e e e E   e e e e e e e E   e e e e e e e E
|-3-3-3-3-3-3-3-3-|-1-1-1-1-1-1-1-1-|-1-1-1-1-1-1-1-1-|-1-1-1-1-1-1-1-1-|
|-----------------|-----------------|-0-0-0-0-0-0-0-0-|-0-0-0-0-0-0-0-0-|
|-3-3-3-3-3-3-3-3-|-3-3-3-3-3-3-3-3-|-----------------|-1-1-1-1-1-1-1-1-|
|-1-1-1-1-1-1-1-1-|-1-1-1-1-1-1-1-1-|-1-1-1-1-1-1-1-1-|-0-0-0-0-0-0-0-0-|
|-----------------|-----------------|-----------------|-----------------|
|-----------------|-----------------|-----------------|-----------------|


  e e e e e e e E   e e e e e e e E
|-4-4-4-4-4-4-4-4-|-1-1-1-1-1-1-1-1-|
|-6-0-0-6-6-0-0-6-|-3-0-0-3-3-0-0-3-|
|-----------------|-----------------|
|-----------------|-----------------|
|-----------------|-----------------|
|-5-5-5-5-5-5-5-5-|-2-2-2-2-2-2-2-2-|


  e e e e e e e E    e  e  e  e  e  e  e  h
|-6-6-6-6-6-6-6-6-|-10-10-10-10-10-10-10-10----|
|-8-8-8-8-8-8-8-8-|--------------0--0--0--0----|
|-----------------|----------------------------|
|-----------------|----------------------------|
|-----------------|----------------------------|
|-7-7-7-7-7-7-7-7-|--7--7--7--7--7--7--7--7----|


  Q=88
  Gtr III
             ~                         ~
  W          W          H     H        H    H
|----------|----------|--------------|------3----|
|-4--------|-8--------|-6-----3------|-1---------|
|----------|----------|--------------|-----------|
|----------|----------|--------------|-----------|
|----------|----------|--------------|-----------|
|----------|----------|--------------|-----------|
|
| Gtr II
| W          W          H.       E E   H    H
|----------|----------|--------------|-----------|
|----------|----------|--------------|------3----|
|----------|----------|--------------|------0----|
|-1--------|-5--------|-3--------0h1-|------0----|
|-3--------|-6--------|-0--------1-1-|-3---------|
|-4--------|-4--------|-2--------2-2-|-4---------|


  Q=88
  Gtr III
              ~~
  W           W           E  E  E  E  Q   Q
|-8--------|-10--------|-13-10----13-16--18--|
|----------|-----------|-------12------------|
|----------|-----------|---------------------|
|----------|-----------|---------------------|
|----------|-----------|---------------------|
|----------|-----------|---------------------|
|
| Gtr II
| W           W           H           H
|----------|-----------|---------------------|
|----------|-----------|---------------------|
|----------|-----------|---------------------|
|-1--------|--0--------|--3-----------6------|
|-3--------|--1--------|--5-----------5------|
|-4--------|--0--------|--4-----------4------|


   Q   Q   T  T T  T  S  S  S  s  s  s
|-----20-------------10-11-13-15-16-18-|
|-13------------9-11-------------------|
|----------8-12------------------------|
|--------------------------------------|
|--------------------------------------|
|--------------------------------------|
|
|      ~~~ PM-----------------------|
|  Q   Q   T  T T  T  S  S  S  s  s  s
|--------------------------------------|
|--------------------------------------|
|-----[5]------------------------------|
|--5--[5]----------------------5--6--8-|
|--3------------------5--6--8----------|
|--0-------0h=4-5h=7-------------------|


  Gtr III
        ~                                    ~~~
   H    H      Q  H     Q     Q   H    Q     Q    E  E  Q   Q
|------------|-8-----------|--------------|------15-16-15------|
|-11----9----|----8--------|-----------9--|--8-------------16--|
|------------|----------8--|-10--12-------|--------------------|
|------------|-------------|--------------|--------------------|
|------------|-------------|--------------|--------------------|
|------------|-------------|--------------|--------------------|
|
| Gtr II
|                    ~                       ~~~
|  H    H      H     H        Q   H    Q     Q    e  e  Q   Q
|------------|-------------|--------------|--------------------|
|------------|-------8-----|--------------|--------------------|
|------------|-------8-----|-----------7--|-------0--1--0------|
|--8----3----|-5-----------|--3---5----6--|-------1--3--1------|
|--5----1----|-3-----------|--5--------5--|-[6]---3--3--3---3--|
|--7----2----|-4-----------|--4-----------|-[4]-------------4--|


  Gtr II
  |-3-|   |-3-|   |-3-|   |-3-|   |-3-|   |-3-|   |-3-|
  s s s S s s S S s s s S s s s S s s s S s s s S s s s S  Q
|--------------------------------------------------------------|
|--------------------------------------------------------------|
|-8-8-8---8-8-8---8-8-8---8-8-8---7-7-7---7-7-7---7-7-7----7---|
|-5-5-5---5-5-5---5-5-5---5-5-5---6-6-6---6-6-6---9-9-9---[9]--|
|-6-6-6---6-6-6---6-6-6---6-6-6---8-8-8---8-8-8---8-8-8----8---|
|-0-0-0-x-0-0-0-x-0-0-0-x-0-0-0-x-------x-------x-------x------|


  Q  Q  Q  W
|---------------|
|-------0-------|
|-1--0--0--5----|
|-3--1--6--5----|
|-3--1--5--3----|
|-2--0--4--0----|


  Q=108
  Gtr I
           |--3---|
  E  E  E  S   S  S E  E   E  E
|-----------------------------4-|
|-4-(4)--------------------4----|
|----0-----0h==5p=0----0--------|
|-------------------------------|
|-3-(3)-3-(3)-(3)---3-(3)-(3)---|
|-------------------------------|


                              Q=130
  E E E  E   E   E  S  S   S.   E  E   E   E  E  E E E
|-3----------8p==6--4h=6p==4--|-0-(0)-(0)--------------|
|-----------------------------|----6--(6)--8-----------|
|-3-3----3---7--(7)-5-(5)-(5)-|--------0------0----7---|
|-----------------------------|-0-(0)------------------|
|-----------------------------|------------------------|
|-0---0-(0)-(0)---------------|-----------/8-(8)-8---8-|


  E  E   E   E   E   E   E  E   E E E E E E E E
|-----------------------------|-----------------|
|-4-(4)------6--(6)-(6)--4----|-3-----3-----3---|
|----0--(0)------0--(0)-----0-|---5-----5-----5-|
|-----------------------------|-----------------|
|-----------------------------|-----------------|
|-5-(5)--5--(5)------5--(5)---|-5---5-----5-----|


  E E E E E E E E   E E E E E E E E
|-----------------|-----------------|
|-1-------1---3---|-0---------------|
|---0-------0---0-|---0-----------0-|
|-----0-----------|-------0---0---0-|
|-----------------|-----------------|
|-4-----4---------|-4---4---2---0---|


        |-3-|
  E E E S S S E E E E   E E E E E  E  S  S   S.   E E E E E E E E
|-------------------4-|-3-------8p=6--4h=6p==4--|-0---------------|
|-4---------------4---|-------------------------|---6---8---------|
|---0---0h5p0---0-----|-3-3---3-7-(7)-5-(5)-(5)-|-----0---0---7---|
|---------------------|-------------------------|-0---------------|
|-3---3-------3-------|-------------------------|-----------------|
|---------------------|-0---0---0---------------|-------8---8---8-|


  E E E E E E E E   E E E E E E E E   E E E E E E E E   E E E E E E E   W
|-----------------|-----------------|-----------------|--------------------|
|-4-----6-----4---|-3-----3-----3---|-1-------1---3---|-0-------------<12>-|
|---0-----0-----0-|---5-----5-----5-|---0-------0---0-|---0-----------<12>-|
|-----------------|-----------------|-----0-----------|-------0---0--------|
|-----------------|-----------------|-----------------|--------------------|
|-5---5-----5-----|-5---5-----5-----|-4-----4---------|-4---4---2---0--(0)-|



Duration Legend
---------------
W - whole; H - half; Q - quarter; E - 8th; S - 16th; T - 32nd; X - 64th; a - acciaccatura
+ - note tied to previous; . - note dotted; .. - note double dotted
Uncapitalized letters represent notes that are staccato (1/2 duration)
Irregular groupings are notated above the duration line
Duration letters will always appear directly above the note/fret number it represents the
duration for.  Duration letters with no fret number below them represent rests.  Multi-
bar rests are notated in the form Wxn, where n is the number of bars to rest for.  Low
melody durations appear below the staff

Tablature Legend
----------------
 h   - hammer-on
 p   - pull-off
 b   - bend
 pb  - pre-bend
 r   - bend release (if no number after the r, then release immediately)
 /\  - slide into or out of (from/to "nowhere")
 s   - legato slide
 S   - shift slide
<n> - natural harmonic
[n]  - artificial harmonic
n(n) - tapped harmonic
 ~   - vibrato
 tr  - trill
 T   - tap
 TP  - trem. picking
 PM  - palm muting
\n/  - tremolo bar dip; n = amount to dip
 \n  - tremolo bar down
 n/  - tremolo bar up
/n\  - tremolo bar inverted dip
 =   - hold bend; also acts as connecting device for hammers/pulls
 <> - volume swell (louder/softer)
 x   - on rhythm slash represents muted slash
 o   - on rhythm slash represents single note slash

Misc Legend
-----------
 |  - bar
||  - double bar
||o - repeat start
o|| - repeat end
*|  - double bar (ending)
 :  - bar (freetime)
 $  - Segno
 &  - Coda
Tempo markers - <E/E./Q/Q./H/H.> = BPM(8/16=s8/s16), where s8 = swing 8ths, s16 = swing 16ths


** Generated using Power Tab Editor by Brad Larsen: The Official Power Tab Web Site