#----------------------------------PLEASE NOTE---------------------------------#
#This file is the author's own work and represents their interpretation of the #
#song. You may only use this file for private study, scholarship, or research. #
#------------------------------------------------------------------------------#

MARIELLA
As recorded by Blood Vacuum
(From the 2005 Album TEMPORAL STORM)

Transcribed by MC

Music by Matthew Calestino
Arranged by M.Calestino


Gtr I (D G C F A D) - 'strings'
Gtr II (D G C F A D) - 'oboe'
Gtr III (D G C F A D) - 'clarinet'
Gtr IV (D G C F A D) - 'harps'
Gtr V (D G C F A D) - 'crunch'
Gtr VI (D G C F A D) - 'lead'

  Q=58
 4/4
  Gtr I
  <
  e e E E e e E E   e e E E e e E E   e e E E e e E E   e e E E e e E E
|-----------------|-----------------|-----------------|-1-1-----0-0---0--|
|-----------------|-1-1---1-1-1---1-|-3-3---3-3-3---3-|-3-3---1----------|
|-2-2---2-2-2---2-|-3-3---3-3-3---3-|-3-3---3-3-3---3-|-0-0---0-3-3---3--|
|-3-3---3-3-3---3-|-2-2---2-2-2---2-|-0-0---0-0-0---0-|------------------|
|-----------------|-----------------|-1-1---1-1-1---1-|-3-3---3-3-3---3--|
|-1-1---1-1-1---1-|-3-3---3-3-3---3-|-----------------|------------------|


  Gtr II
   <
                    ~~
   H..              E    H        E  E  E  E
|-20------------------|-18-------14h15-16h17-|
|------------------17-|----------------------|
|---------------------|----------------------|
|---------------------|----------------------|
|---------------------|----------------------|
|---------------------|----------------------|
|
| Gtr I
|  e   e E E e e E  E    e e E E  e  e  E  E
|---------------------|----------------------|
|---------------------|--1-1---1--1--1-----1-|
|--2---2---2-2-2----2-|--3-3---3--3--3-----3-|
|--3---3---3-3-3----3-|--2-2---2--2--2-----2-|
|---------------------|----------------------|
|--1---1---1-1-1----1-|--3-3---3--3--3-----3-|


            ~~
   H        H          Q    Q    Q    E  E
|-22----------------|------12---18---14h15-|
|-------------------|-13-------------------|
|----------19-------|----------------------|
|-------------------|----------------------|
|-------------------|----------------------|
|-------------------|----------------------|
|
|  e e E E  e e E E    e e  E E  e e  E  E
|-------------------|--1-1-------0-0-----0-|
|--3-3---3--3-3---3-|--3-3----1------------|
|--3-3---3--3-3---3-|--0-0----0--3-3-----3-|
|--0-0---0--0-0---0-|----------------------|
|--1-1---1--1-1---1-|--3-3----3--3-3-----3-|
|-------------------|----------------------|


   >
   ~~
   W
|-13---------------|-----------------------|
|------------------|-----------------------|
|------------------|-----------------------|
|------------------|-----------------------|
|------------------|-----------------------|
|------------------|-----------------------|
|
| Gtr III
|  <
|                    ~
|  H       E E E E   H        S  S  Q    E
|------------------|-8---------------------|
|-10-------5-6-7-8-|---------11----13------|
|------------------|------------10------12-|
|------------------|-----------------------|
|------------------|-----------------------|
|------------------|-----------------------|
|
| Gtr I
|  e e E E e e E E   e e E E  e     e E  E
|------------------|-----------------------|
|------------------|-1-1---1--1-----1----1-|
|--2-2---2-2-2---2-|-3-3---3--3-----3----3-|
|--3-3---3-3-3---3-|-2-2---2--2-----2----2-|
|------------------|-----------------------|
|--1-1---1-1-1---1-|-3-3---3--3-----3----3-|


   <
                        ~~
   H       E E  E  E    H        Q   Q
|-10-------6-8-10-13-|-12-----------------|
|--------------------|----------11---8----|
|--------------------|--------------------|
|--------------------|--------------------|
|--------------------|--------------------|
|--------------------|--------------------|
|
|                       ~~
|  H       E E  E  E    H        Q   Q
|--------------------|--------------------|
|--------------------|--------------------|
|-10-------7-5-10-14-|-12--------9---9----|
|--------------------|--------------------|
|--------------------|--------------------|
|--------------------|--------------------|
|
|  e e E E e e  E  E    e e E E  e e E E
|--------------------|--1-1------0-0---0--|
|--3-3---3-3-3-----3-|--3-3---1-----------|
|--3-3---3-3-3-----3-|--0-0---0--3-3---3--|
|--0-0---0-0-0-----0-|--------------------|
|--1-1---1-1-1-----1-|--3-3---3--3-3---3--|
|--------------------|--------------------|


  Gtr II
   W
|-------|
|-10----|
|-------|
|-------|
|-------|
|-------|
|
| Gtr III
|  W
|-------|
|-------|
|-10----|
|-------|
|-------|
|-------|
|
|  W
|-------|
|-------|
|--2----|
|--3----|
|-------|
|--1----|


 3/4
  Gtr IV
  E E E E  E   E    E  E  E E  E   E
|-------3---------|-------0-1---------|
|-----1----3------|-------1----1------|
|---2----------3--|----3-----------2--|
|-3---3-----------|-2--2-------3------|
|---3-------------|-3-(3)----------3--|
|-1-----3-(3)-(3)-|---------1-(1)-(1)-|


  E  E   E  E  E   E    S  S   S  S S S S S Q   Q
|---------------------|-5--6---5---------------------|
|---------------------|-----------8-6-5--------10----|
|--------2--3---------|-5--7---5--------7-5----10----|
|--------3-----5------|-----------8-7-5-----7--(7)---|
|----0-------------5--|-3-(3)-(3)-------8-7-8--(8)---|
|-1-(1)-(1)-3-(3)-(3)-|-------------------------1----|


|-----------------|----------------------|
|-----------------|----------------------|
|-----------------|----------------------|
|-----------------|----------------------|
|-----------------|----------------------|
|-----------------|----------------------|
|
| Gtr IV
| E  E E E E  E     E  E  E E  E   E
|--------3--------|-------0-1------------|
|------1---3------|-------1----1---------|
|----2--------3---|----3-----------2-----|
|-3----3----------|-2--2-------3---------|
|----3------------|-3-(3)----------3-----|
|-1------3--------|---------1-(1)-(1)----|
|
| Gtr V
| Q.       Q.       Q          E   Q.
|-----------------|----------------------|
|-----------------|----------------------|
|-----------------|---------------10-----|
|-----------------|-8---------10--10-----|
|-3--------5------|-7---------(7)--8-----|
|-1--------3------|-0---------(0)--8-----|


|---------------------|------------------------------|
|---------------------|------------------------------|
|---------------------|------------------------------|
|---------------------|------------------------------|
|---------------------|------------------------------|
|---------------------|------------------------------|
|
| E   E   E  E E  E     S  S   S  S S S S S Q   Q
|---------------------|-5--6---5---------------------|
|---------------------|-----------8-6-5--------10----|
|---------2--3--------|-5--7---5--------7-5----10----|
|---------3----5------|-----------8-7-5-----7--(7)---|
|-----0-----------5---|-3-(3)-(3)-------8-7-8--(8)---|
|-1--(1)-(1)-3--------|-------------------------1----|
|
| Q.           Q.       Q             Q     H
|---------------------|------------------------------|
|--------------3------|------------------------------|
|-2------------3------|---------------3-----2--------|
|-3------------0------|-5-------------5-----3--------|
|-0-------------------|-3-------------------3--------|
|-1-------------------|-3-------------------1--------|


     Gtr VI
      ~~                 ~~~
  E   Q   Q.          E  Q       Q.
|-------------------|------------5---------|
|----10---6---------|----5-------6---------|
|----10---7---------|----3-------5---------|
|-------------------|----------------------|
|-------------------|----------------------|
|-------------------|----------------------|
|
| Gtr IV
| E   E E E  E  E     E  E  E E  E   E
|---------3---------|-------0-1------------|
|-------1----3------|-------1----1---------|
|-----2---------3---|----3-----------2-----|
|-3-----3-----------|-2--2-------3---------|
|-----3-------------|-3-(3)----------3-----|
|-1-------3---------|---------1-(1)-(1)----|
|
| Gtr V
| Q.         Q.       Q          E   Q.
|-------------------|----------------------|
|-------------------|----------------------|
|-------------------|---------------10-----|
|-------------------|-8---------10--10-----|
|-3----------5------|-7---------(7)--8-----|
|-1----------3------|-0---------(0)--8-----|


      ~~~~~~~~~~~~~
  E   Q         Q.         S  S  S  S  E E  H
|----------------------|--------------10-8---------|
|----10--------11------|--11-----------------------|
|----10--------12------|-----10----10------10------|
|-----7---------8------|--------12----------7------|
|----------------------|---------------------------|
|----------------------|---------------------------|
|
| E   E   E  E  E  E       S  S  S  S  E E    H
|----------------------|---------------1-0----1----|
|----------------------|---6--3-----3--3-1----1----|
|---------2--3---------|---3-----3------------2----|
|---------3-----5------|------3-----3--3-2----3----|
|-----0------------5---|---------5-----------------|
|-1--(1)-(1)-3---------|---------------------------|
|
| Q.            Q.         S  S  S  S  E E    H
|----------------------|---------------------------|
|---------------3------|---------------------------|
|-2-------------3------|----------------------2----|
|-3-------------0------|---3-----------8-7----3----|
|-0--------------------|------5-----5---------3----|
|-1--------------------|---------6------------1----|


  Q=50
  Gtr I
  Q  E E E E   E E E E Q  S S S S   Q  E E Q  E E    E E E E S  S S  S  Q
|------------|--------------------|---------------|------------------------|
|-6--6-8-----|-8-8-6-5-6----------|-6--6-3------8-|-10-8-----5h=6p5h=8h10--|
|--------9---|---5-5-3----5-3-2p0-|----2-3-3------|------9-2---------------|
|-3--3-5-----|-8-------3----------|-3------0----5-|--7-5---3---------------|
|--------7---|--------------------|---------------|------7-----------------|
|------------|--------------------|---------------|------------------------|
|
| Gtr I
| Q  E E E E   E E E E Q  S S S S   Q  E E Q  E E    E E E E S  S S  S  Q
|------------|--------------------|---------------|----------8h10p8h12h13--|
|------------|--------------------|---------------|------------------------|
|------------|--------------------|---------------|------------------------|
|-7--7-8-5---|-3-5-5-2--------2p0-|-7--7-8------5-|--3---------------------|
|------------|-1-3-5-3-3--3-5-----|----5-5-5----3-|----5-1-3---------------|
|-5--5-6-3---|---------1----------|-5------3------|--1-3-0-1---------------|


  Q=58
     Gtr VI
      ~~              ~~~
  E   Q   Q.       E  Q       Q.
|----------------|------------5----------|
|----10---6------|----5-------6----------|
|----10---7------|----3-------5----------|
|----------------|-----------------------|
|----------------|-----------------------|
|----------------|-----------------------|
|
| Gtr IV
| E   E E E  E E   E  E   E   E   E   E
|---------3------|--------0---1----------|
|-------1----3---|--------1-------1------|
|-----2--------3-|----3---------------2--|
|-3-----3--------|-2--2-----------3------|
|-----3----------|-3-(3)--------------3--|
|-1-------3------|------------1--(1)-(1)-|
|
| Gtr V
| Q.      Q.       Q      E   Q.
|----------------|-----------------------|
|----------------|-----------------------|
|----------------|-----------10----------|
|----------------|-8-----10--10----------|
|-3-------5------|-7-----(7)--8----------|
|-1-------3------|-0-----(0)--8----------|


      ~~~~~~~~~~~                ~~
  E   Q       Q.        E  E  E  W
|--------------------|------------------|
|----10------11------|-----8-11-10------|
|----10------12------|--9--9--9-10------|
|-----7-------8------|--8---------------|
|--------------------|------------------|
|--------------------|------------------|
|
| E   E   E   E  E E    E  E  E    W
|--------------------|------------------|
|--------------------|------------------|
|---------2---3------|--5--3--3----2----|
|---------3------5---|--5--5--2----3----|
|-----0------------5-|-------------3----|
|-1--(1)-(1)--3------|--8--3--0----1----|
|
| Q.          Q.        E  E  E  W
|--------------------|------------------|
|-------------3------|------------------|
|-2-----------3------|----------10------|
|-3-----------0------|-10-10--8-10------|
|-0------------------|-10--7--7--8------|
|-1------------------|--8-----0--8------|


  Gtr IV
  S S S S S S S S   S S S S S S S S   S S S S S S S S   E E  E  E
|-----0-------0---|-----0-------0---|-----0-------5---|--------------|
|---6---6---6---6-|---6---6---6---6-|---6---6---6---6-|--------------|
|-3---------------|-----------------|-----------------|------3--5----|
|---------7-------|-5-------3-------|-----------------|-5-7--5--7----|
|-----------------|-----------------|-7-------7-------|-7-8----------|
|-----------------|-----------------|-----------------|--------------|
|
| Gtr I
| Q       Q         Q       Q         Q       Q         E E  E  S  S
|-----------------|-----------------|-----------------|--------------|
|-----------------|-----------------|-----------------|--------------|
|-----------------|-3-------7-------|---------9-------|-3-7-12-10-12-|
|-5-------3-------|-----------------|-8---------------|--------------|
|-----------------|-----------------|-----------------|--------------|
|-----------------|-----------------|-----------------|--------------|


  Q=78
 3/4
  Gtr I
   E  Q.           Q.     Q   E   H              Q.     Q   S S
|----------------|-8------6---5-|--------------|-3--------------|
|-10-------------|--------------|-3------------|--------6---6-8-|
|-----7----------|--------------|--------------|----------------|
|----------------|--------------|--------------|----------------|
|----------------|--------------|--------------|----------------|
|----------------|--------------|--------------|----------------|
|
| Gtr IV
|  E  E  E E E E   E  E E E E E   E  E E E E E   E  E E E E E
|--------1-5-----|--------------|--------1---1-|----------------|
|-----3--3-6-6---|-1------------|------3-3-3-3-|----------------|
|--2--2------7-7-|----0---3-----|----2-2---2---|-5------3-------|
|--0-----------0-|----------3---|-0--0---------|-5--5-----5-----|
|----------------|-0----0-0---0-|-0------------|-3----3-3---3---|
|----------------|--------------|--------------|-3--------------|
|
| Gtr V
|  H.              H.             H.             H.
|----------------|--------------|--------------|----------------|
|--6-------------|--------------|-6------------|----------------|
|--7-------------|--------------|-7------------|----------------|
|--7-------------|-7------------|-7------------|-5--------------|
|--5-------------|-7------------|-5------------|-5--------------|
|--5-------------|-5------------|-5------------|-3--------------|


  Q=78
 3/4
  Gtr I
   E  Q.           Q.     Q   E   H              Q.      H
|----------------|-8------6---5-|--------------|-3--------------|
|-10-------------|--------------|-3------------|---------6------|
|-----7----------|--------------|--------------|----------------|
|----------------|--------------|--------------|----------------|
|----------------|--------------|--------------|----------------|
|----------------|--------------|--------------|----------------|
|
| Gtr IV
|  E  E  E E E E   E  E E E E E   E  E E E E E   E   E E E E H
|--------1-5-----|--------------|--------1---1-|----------------|
|-----3--3-6-6---|-1------------|------3-3-3-3-|----------------|
|--2--2------7-7-|----0---3-----|----2-2---2---|-5-------3------|
|--0-----------0-|----------3---|-0--0---------|-5---5-----5----|
|----------------|-0----0-0---0-|-0------------|-3-----3-3---3--|
|----------------|--------------|--------------|-3--------------|
|
| Gtr V
|  H.              H.             H.             H..
|----------------|--------------|--------------|----------------|
|--6-------------|--------------|-6------------|----------------|
|--7-------------|--------------|-7------------|----------------|
|--7-------------|-7------------|-7------------|-5--------------|
|--5-------------|-7------------|-5------------|-5--------------|
|--5-------------|-5------------|-5------------|-3--------------|


  Q=98
  Gtr III
      <                                 <
      ~~~                               ~~~
  Q   Q..          Q.      Q.       Q   Q..          Q.     Q.
|---------------|-----------------|-----8---------|----------------|-|
|---------------|-----------------|---------------|----------------|-|
|-----8---------|-10-------8------|---------------|--7------5------|-|
|---------------|-----------------|---------------|----------------|-|
|---------------|-----------------|---------------|----------------|-|
|---------------|-----------------|---------------|----------------|-|
|
| Gtr IV
| E E E   E E E    E  E E  E  E E   E E E   E E E    E  E E E  E E
|---------8-----|-13------10------|---------8-----|-10------8------|-|
|-----8-----8---|-----8-------8---|-----7-----7---|-----7------7---|-|
|---8---------8-|-------8-------8-|---8---------8-|-------8--------|-|
|-8-------------|-----------------|-7-------------|--------------7-|-|
|---------------|-----------------|---------------|----------------|-|
|---------------|-----------------|---------------|----------------|-|
|
| Gtr I
| H                H                H                H
|---------------|-----------------|---------------|----------------|-|
|-8-------------|-----------------|-7-------------|----------------|-|
|---------------|-----------------|---------------|----------------|-|
|---------------|--5--------------|---------------|--7-------------|-|
|---------------|-----------------|---------------|----------------|-|
|---------------|-----------------|---------------|----------------|-|


  Gtr III
                               ~~~      ~~~
  E E E E E E   E E E E E E    Q. S  S  E.       Q.      Q.
|-----3-4-6-4-|-1-----------|------------------|-----------------|
|---1---------|---1---1-----|------------------|-----------------|
|-------------|-----3---1---|--7--5--3--2------|-5-------3-------|
|-3-----------|-----------3-|------------------|-----------------|
|-------------|-------------|------------------|-----------------|
|-------------|-------------|------------------|-----------------|
|
| Gtr IV
| E E E E E E   E E E E E E    E  E  E  E  E E   E   E E E  E E
|-----3-4-6-4-|-1-----------|------------------|-8-------6-------|
|---1---------|---1---1-----|-------10-11------|----10------8----|
|-------------|-----3---1---|-----7--------7---|-----------------|
|-3-----------|-----------3-|--0-------------0-|-------0------0--|
|-------------|-------------|------------------|-----------------|
|-------------|-------------|------------------|-----------------|
|
| Gtr I
| H             H              H                 H
|-------------|-------------|------------------|-----------------|
|-------------|-6-----------|-10---------------|-----------------|
|-------------|-------------|------------------|-----------------|
|-3-----------|-------------|------------------|-7---------------|
|-------------|-------------|------------------|-----------------|
|-------------|-------------|------------------|-----------------|


  Gtr III
  <                               <
                                  ~~~
  E E E E E E   Q.     Q.         E  E  E  E  E  E    Q.        Q
|-------------|-8--------------|-------------------|-15------------------|
|-5h8-5h8-5h8-|----------------|-------------------|---------------------|
|-------------|--------9-------|-12h15-12h15-12h15-|---------------------|
|-------------|----------------|-------------------|-----------14--------|
|-------------|----------------|-------------------|---------------------|
|-------------|----------------|-------------------|---------------------|
|
| Gtr IV
| E E E E E E   E  E E E  E  E    E  E  E  E  E  E    E   E  E  E  E  E
|-------3-----|-8--------------|----------10-------|-12------------------|
|---------5---|----8---8-------|-------11----11----|-----11----11--------|
|-----3-----3-|------9----9----|----12----------12-|--------12----12-----|
|---5---------|-------------10-|--8----------------|---------------------|
|-3-----------|----------------|-------------------|---------------------|
|-------------|----------------|-------------------|-----------------12--|
|
| Gtr I
| H             H                 H                   H
|-------------|----------------|-------------------|---------------------|
|-------------|----------------|-------------------|--5------------------|
|-------------|-5--------------|--3----------------|---------------------|
|-------------|----------------|-------------------|---------------------|
|-3-----------|----------------|-------------------|---------------------|
|-------------|----------------|-------------------|---------------------|


  Q=58
|-----------------|----------------------|
|-----------------|----------------------|
|-----------------|----------------------|
|-----------------|----------------------|
|-----------------|----------------------|
|-----------------|----------------------|
|
| Gtr IV
| E  E E E E  E     E  E  E E  E   E
|--------3--------|-------0-1------------|
|------1---3------|-------1----1---------|
|----2--------3---|----3-----------2-----|
|-3----3----------|-2--2-------3---------|
|----3------------|-3-(3)----------3-----|
|-1------3--------|---------1-(1)-(1)----|
|
| Gtr V
| Q.       Q.       Q          E   Q.
|-----------------|----------------------|
|-----------------|----------------------|
|-----------------|---------------10-----|
|-----------------|-8---------10--10-----|
|-3--------5------|-7---------(7)--8-----|
|-1--------3------|-0---------(0)--8-----|


|---------------------|------------------------------|
|---------------------|------------------------------|
|---------------------|------------------------------|
|---------------------|------------------------------|
|---------------------|------------------------------|
|---------------------|------------------------------|
|
| E   E   E  E E  E     S  S   S  S S S S S Q   Q
|---------------------|-5--6---5---------------------|
|---------------------|-----------8-6-5--------10----|
|---------2--3--------|-5--7---5--------7-5----10----|
|---------3----5------|-----------8-7-5-----7--(7)---|
|-----0-----------5---|-3-(3)-(3)-------8-7-8--(8)---|
|-1--(1)-(1)-3--------|-------------------------1----|
|
| Q.           Q.       Q             Q     H
|---------------------|------------------------------|
|--------------3------|------------------------------|
|-2------------3------|---------------3-----2--------|
|-3------------0------|-5-------------5-----3--------|
|-0-------------------|-3-------------------3--------|
|-1-------------------|-3-------------------1--------|


     Gtr VI
      ~~              ~~~
  E   Q   Q.       E  Q       Q.
|----------------|------------5----------|
|----10---6------|----5-------6----------|
|----10---7------|----3-------5----------|
|----------------|-----------------------|
|----------------|-----------------------|
|----------------|-----------------------|
|
| Gtr IV
| E   E E E  E E   E  E   E   E   E   E
|---------3------|--------0---1----------|
|-------1----3---|--------1-------1------|
|-----2--------3-|----3---------------2--|
|-3-----3--------|-2--2-----------3------|
|-----3----------|-3-(3)--------------3--|
|-1-------3------|------------1--(1)-(1)-|
|
| Gtr V
| Q.      Q.       Q      E   Q.
|----------------|-----------------------|
|----------------|-----------------------|
|----------------|-----------10----------|
|----------------|-8-----10--10----------|
|-3-------5------|-7-----(7)--8----------|
|-1-------3------|-0-----(0)--8----------|


      ~~~~~~~~~~~                   ~~
  E   Q       Q.        E.  E.  E.  W
|--------------------|-------------------|
|----10------11------|------8--11--10----|
|----10------12------|--9---9---9--10----|
|-----7-------8------|--8----------------|
|--------------------|-------------------|
|--------------------|-------------------|
|
| E   E   E   E  E E    E.  E.  E.  W
|--------------------|-------------------|
|--------------------|-------------------|
|---------2---3------|--5---3---3---2----|
|---------3------5---|--5---5---2---3----|
|-----0------------5-|--------------3----|
|-1--(1)-(1)--3------|--8---3---0---1----|
|
| Q.          Q.        E.  E.  E.  W
|--------------------|-------------------|
|-------------3------|-------------------|
|-------------3------|-------------10----|
|-3-----------0------|-10--10---8--10----|
|-0------------------|-10---7---7---8----|
|-1------------------|--8-------0---8----|


  Q=96
 4/4
  Gtr V
  E   E   E  E  E  E   E     E     E   E  E  E  E  E   E    E
|---------------8----------------|--------------8---------------|
|------------8-----8--(8)--------|-----------8-----8--(8)-------|
|--------10-----------10---(10)--|--------9------------9---(9)--|
|----10---------------------10---|----10-------------------10---|
|-8------------------------------|-8----------------------------|
|--------------------------------|------------------------------|


  E  E  E  E  E  E   E    E     E  E  E  E  E  E   E    E
|-------------1---------------|-------------1-----------------|
|----------1-----1--(1)-------|----------1-----1--(1)---------|
|-------3------------3---(3)--|-------2------------2---(2)----|
|----3--------------------3---|----3--------------------3-----|
|-1---------------------------|-1-----------------------------|
|-----------------------------|-------------------------------|


  Gtr I
    <
                                ~~~~
    W                          +W
|--20-----------------------|-(20)-----------------------|
|---------------------------|----------------------------|
|---------------------------|----------------------------|
|---------------------------|----------------------------|
|---------------------------|----------------------------|
|---------------------------|----------------------------|
|
| Gtr VI
|   ~~~~                        ~~~~
|   H.              Q           H           H
|---------------------------|----------------------------|
|------------------[8]------|-[10]-----------------------|
|-[10]----------------------|-------------/[9]-----------|
|---------------------------|----------------------------|
|---------------------------|----------------------------|
|---------------------------|----------------------------|
|
| Gtr V
|   E   E  E E E E  E    E      E   E E E   E  E  E   E
|--------------8------------|---------------8------------|
|------------8---8-(8)------|-----------8------8-(8)-----|
|---------10-------10--(10)-|---------9-----------9--(9)-|
|------10---------------10--|------10----------------10--|
|---8-----------------------|---8------------------------|
|---------------------------|----------------------------|


                             ~~~
   W                         H         H
|-18----------------------|-25--------24------------|
|-------------------------|-------------------------|
|-------------------------|-------------------------|
|-------------------------|-------------------------|
|-------------------------|-------------------------|
|-------------------------|-------------------------|
|
|  ~~                        ~~~~~~~~~~~~~
|  E  Q.      Q    Q         H         H
|-------------------------|-------------------------|
|-------------------------|-------------------------|
|--6-/7------\3---/5------|-----------[2]-----------|
|-------------------------|-[3]---------------------|
|-------------------------|-------------------------|
|-------------------------|-------------------------|
|
|  E  E  E E  E E  E   E     E  E E E  E  E  E   E
|-------------1-----------|------------1------------|
|----------1----1-(1)-----|---------1-----1-(1)-----|
|--------3---------3--(3)-|-------2----------2--(2)-|
|-----3----------------3--|-----3----------------3--|
|--1----------------------|--1----------------------|
|-------------------------|-------------------------|


   <
                                                            ~~
   W                                                        W
|-25-----------------------------------------------------|-20---------------------|
|--------------------------------------------------------|------------------------|
|--------------------------------------------------------|------------------------|
|--------------------------------------------------------|------------------------|
|--------------------------------------------------------|------------------------|
|--------------------------------------------------------|------------------------|
|
| Gtr VI
|                                                           ~~             ~~~
|  |--3--|                  |--3--|
|  S  S  S  S  S  S S  S  S S  S  S  S  S  S   S   S   S    H         Q    Q
|---------------------------------------------12--13--15-|-20---------------------|
|-----------------------------------10-11-13-------------|-----------18---17------|
|-------------------9-10-12-9-10-12----------------------|------------------------|
|-----------8-10-12--------------------------------------|------------------------|
|-/8-10-12-----------------------------------------------|------------------------|
|--------------------------------------------------------|------------------------|
|
| Gtr V
|  E        E     E    E    E        E     E       E        E  E E E  E E  E   E
|---------------------------8----------------------------|------------8-----------|
|----------------------8-------------8----(8)------------|---------8----8-(8)-----|
|----------------10-----------------------10-----(10)----|-------9---------9--(9)-|
|----------10-------------------------------------10-----|----10--------------10--|
|--8-----------------------------------------------------|--8---------------------|
|--------------------------------------------------------|------------------------|


                                             H.=H
                                              ~~
   W                                          H                             H
|-18---------------------------------------|-25----------------------------24--------------------|
|------------------------------------------|-----------------------------------------------------|
|------------------------------------------|-----------------------------------------------------|
|------------------------------------------|-----------------------------------------------------|
|------------------------------------------|-----------------------------------------------------|
|------------------------------------------|-----------------------------------------------------|
|
|                                       ~~~
|  E  E   E  S   S  S  S  S  S  S   S   E     T  T  T T  S  S   S  S  S  S  S  S  S  S  E   E
|------------------10-15p13-12--8--(8)-----|----------------------15-18p15----20-18p17-14--15----|
|------------8-/11------------------8------|---------------11-/17----------17--------------------|
|---------9-----------------------------9--|----------9-12---------------------------------------|
|-----8--(8)-------------------------------|--8-10-11--------------------------------------------|
|-/7-(7)-----------------------------------|-----------------------------------------------------|
|------------------------------------------|-----------------------------------------------------|
|
|  E  E   E  E      E     E     E       E     E          E      E     E     E     E     E   E
|-------------------1----------------------|--------------------------------1--------------------|
|------------1------------1----(1)---------|--------------------------1-----------1----(1)-------|
|---------3---------------------3------(3)-|--------------------2-----------------------2--(2)---|
|-----3---------------------------------3--|-------------3----------------------------------3----|
|--1---------------------------------------|--1--------------------------------------------------|
|------------------------------------------|-----------------------------------------------------|


  Gtr I
  ~                      ~~~~~~~~~~~~~~~~~~~~~~~~~~~~~~~
  H           H          H              H           W..
|-8----------10--------------------------------------------|
|------------------------6-------------11----------10------|
|----------------------------------------------------------|
|----------------------------------------------------------|
|----------------------------------------------------------|
|----------------------------------------------------------|
|
| Gtr IV
| E  E   Q    E  E   Q   E  E   E   E   E  E  E  E  W..
|-------------3-(3)-(3)-----------------------------1------|
|-6-(6)-(6)------3--(3)-------------------------11--1------|
|----5--(5)----------3---7-(7)-(7)-----------14--9--2------|
|--------7------------------8--(8)--8-----10--5--5--3------|
|-------------------------------8--(8)-13--7-13--7--3------|
|-1-(1)-(1)---3-(3)-(3)--6-(6)-(6)------6-----3-----1------|
|
| Gtr V
| ~~~~~~~~~~~~~~~~~~~~~~~~~~~~~~~~~~~~~~~~
| H           H          H              H           W..
|----------------------------------------------------------|
|---------------------------------------------------8------|
|-2-----------3----------7--------------9----------10------|
|-3-----------5----------8-------------10----------10------|
|-3-----------5----------8-------------10-----------8------|
|----------------------------------------------------------|



Duration Legend
---------------
W - whole; H - half; Q - quarter; E - 8th; S - 16th; T - 32nd; X - 64th; a - acciaccatura
+ - note tied to previous; . - note dotted; .. - note double dotted
Uncapitalized letters represent notes that are staccato (1/2 duration)
Irregular groupings are notated above the duration line
Duration letters will always appear directly above the note/fret number it represents the
duration for.  Duration letters with no fret number below them represent rests.  Multi-
bar rests are notated in the form Wxn, where n is the number of bars to rest for.  Low
melody durations appear below the staff

Tablature Legend
----------------
 h   - hammer-on
 p   - pull-off
 b   - bend
 pb  - pre-bend
 r   - bend release (if no number after the r, then release immediately)
 /\  - slide into or out of (from/to "nowhere")
 s   - legato slide
 S   - shift slide
<n> - natural harmonic
[n]  - artificial harmonic
n(n) - tapped harmonic
 ~   - vibrato
 tr  - trill
 T   - tap
 TP  - trem. picking
 PM  - palm muting
\n/  - tremolo bar dip; n = amount to dip
 \n  - tremolo bar down
 n/  - tremolo bar up
/n\  - tremolo bar inverted dip
 =   - hold bend; also acts as connecting device for hammers/pulls
 <> - volume swell (louder/softer)
 x   - on rhythm slash represents muted slash
 o   - on rhythm slash represents single note slash

Misc Legend
-----------
 |  - bar
||  - double bar
||o - repeat start
o|| - repeat end
*|  - double bar (ending)
 :  - bar (freetime)
 $  - Segno
 &  - Coda
Tempo markers - <E/E./Q/Q./H/H.> = BPM(8/16=s8/s16), where s8 = swing 8ths, s16 = swing 16ths


** Generated using Power Tab Editor by Brad Larsen: The Official Power Tab Web Site