#----------------------------------PLEASE NOTE---------------------------------#
#This file is the author's own work and represents their interpretation of the #
#song. You may only use this file for private study, scholarship, or research. #
#------------------------------------------------------------------------------#

WOLF KILLER
As recorded by Blood Vacuum
(From the 2004 Album HOPELESS IN C MINOR)

Transcribed by M.Calestino

Words and Music by Matthew Calestino
Arranged by M. Calestino


Gtr I (C G C G B E) - 'heavy axe'
Gtr II (C G C G B E) - 'Untitled'
Gtr III (C G C G B E) - 'harpsichord'
Gtr IV (C G C F B E) - 'Untitled'
Gtr V (E A D G B E) - 'viola'

  Q=74
 4/4
  Gtr IV
   W          W          W          W
|--8--------|-6--------|-4--------|-3--------|
|--9--------|-8--------|-6--------|-4--------|
|-10--------|-9--------|-5--------|-5--------|
|--0--------|-0--------|----------|-0--------|
|--0--------|-0--------|----------|-0--------|
|--0--------|-7--------|-5--------|-0--------|


   W          W          W          W
|--8--------|-6--------|-4--------|-3----|
|--9--------|-8--------|-6--------|-4----|
|-10--------|-9--------|-5--------|-5----|
|--0--------|-0--------|----------|-0----|
|--0--------|-0--------|----------|-0----|
|--0--------|-7--------|-5--------|-0----|


 3/4
  Gtr II
  Q.   E E.. Q  Q.   E Q    Q  Q.   E Q  Q  Q.     E E.. Q
|-3----3-3---3--1----1-1--|-1--4----4-4--4--3----|-3-3---3--|--|
|-1----1-1---1--1----1-1--|-1--3----3-3--3--1----|-1-1---1--|--|
|-0----0-0---0--0----0-0--|-0--0----0-0--0--0----|-0-0---0--|--|
|-0----0-0---0--0----0-0--|-0--0----2-2--2--0----|-4-4---4--|--|
|-0----0-0---0--0----0-0--|-0--0----0-0--0--0----|-0-0---0--|--|
|-0----0-0---0--0----0-0--|-0--0----0-0--0--0----|-0-0---0--|--|


  Gtr IV
   W          W          W          W
|--8--------|-6--------|-4--------|-3--------|
|--9--------|-8--------|-6--------|-4--------|
|-10--------|-9--------|-5--------|-5--------|
|--0--------|-0--------|----------|-0--------|
|--0--------|-0--------|----------|-0--------|
|--0--------|-7--------|-5--------|-0--------|


   W          W          W          W
|--8--------|-6--------|-4--------|-3----|
|--9--------|-8--------|-6--------|-4----|
|-10--------|-9--------|-5--------|-5----|
|--0--------|-0--------|----------|-0----|
|--0--------|-0--------|----------|-0----|
|--0--------|-7--------|-5--------|-0----|


 4/4
  Gtr II
  Q.   E E.. Q  Q.     E Q  Q  Q.     E Q  Q  Q.     E E.. Q
|-3----3-3---3--1----|-1-1--1--4----|-4-4--4--3----|-3-3---3----||
|-1----1-1---1--1----|-1-1--1--3----|-3-3--3--1----|-1-1---1---o||
|-0----0-0---0--0----|-0-0--0--0----|-0-0--0--0----|-0-0---0----||
|-0----0-0---0--0----|-0-0--0--0----|-2-2--2--0----|-4-4---4----||
|-0----0-0---0--0----|-0-0--0--0----|-0-0--0--0----|-0-0---0---o||
|-0----0-0---0--0----|-0-0--0--0----|-0-0--0--0----|-0-0---0----||


  Gtr II
  Q.   E E.. Q  Q.     E Q  Q  Q.     E Q  Q  W.
|-3----3-3---3--1----|-1-1--1--4----|-4-4--4--3-------------||--|
|-1----1-1---1--1----|-1-1--1--3----|-3-3--3--1-------------||--|
|-0----0-0---0--0----|-0-0--0--0----|-0-0--0--0-------------||--|
|-0----0-0---0--0----|-0-0--0--0----|-2-2--2--4-------------||--|
|-0----0-0---0--0----|-0-0--0--0----|-0-0--0--0-------------||--|
|-0----0-0---0--0----|-0-0--0--0----|-0-0--0--0-------------||--|


 3/4
  Gtr II
     |-3-|            |-3-|              |--3--|               |-3-|
  Q  S S S E E E   Q  S S S E E E    Q   S  S  S  E  E  E   Q  S S S E E E
|-8--8-8-8-8-8-8-|-7--7-7-7-7-7-7-|-10--10-10-10-10-10-10-|-8--8-8-8-8-8-8---||
|-5--5-5-5-5-5-5-|-3--3-3-3-3-3-3-|--9---9--9--9--9--9--9-|-4--4-4-4-4-4-4--o||
|-0--0-0-0-0-0-0-|-0--0-0-0-0-0-0-|--0---0--0--0--0--0--0-|-0--0-0-0-0-0-0---||
|-0--0-0-0-0-0-0-|-0--0-0-0-0-0-0-|--0--11-11-11-11-11-11-|-0--0-0-0-0-0-0---||
|-0--0-0-0-0-0-0-|-0--0-0-0-0-0-0-|--0---0--0--0--0--0--0-|-0--0-0-0-0-0-0--o||
|-0--0-0-0-0-0-0-|-0--0-0-0-0-0-0-|--0---0--0--0--0--0--0-|-0--0-0-0-0-0-0---||


 3/4
  Gtr II
     |-3-|            |-3-|              |--3--|               |-3-|
  Q  S S S E E E   Q  S S S E E E    Q   S  S  S  E  E  E   Q  S S S E E W
|-8--8-8-8-8-8-8-|-7--7-7-7-7-7-7-|-10--10-10-10-10-10-10-|-8--8-8-8-8-8-8---||
|-5--5-5-5-5-5-5-|-3--3-3-3-3-3-3-|--9---9--9--9--9--9--9-|-4--4-4-4-4-4-4--o||
|-0--0-0-0-0-0-0-|-0--0-0-0-0-0-0-|--0---0--0--0--0--0--0-|-0--0-0-0-0-0-0---||
|-0--0-0-0-0-0-0-|-0--0-0-0-0-0-0-|--0--11-11-11-11-11-11-|-0--0-0-0-0-0-0---||
|-0--0-0-0-0-0-0-|-0--0-0-0-0-0-0-|--0---0--0--0--0--0--0-|-0--0-0-0-0-0-0--o||
|-0--0-0-0-0-0-0-|-0--0-0-0-0-0-0-|--0---0--0--0--0--0--0-|-0--0-0-0-0-0-0---||


  Wx4
|--------|
|--------|
|--------|
|--------|
|--------|
|--------|


  Q=98
  Gtr I
        PM----------|                   PM----|
  E E S S S S S S S S S S S S   S S S S S S S S S S S S S S S S
|-----------------------------|---------------------------------|
|-----------------------------|-----------------4-4-3-3-1-1-3-3-|
|-----------------------------|-----------------5-5-3-3-1-1-3-3-|
|-7-7---------5-5-------------|-7-7-7---------------------------|
|-5-5-7-7-4-4-------------4-4-|-5-5-5---7-7-4-4-----------------|
|-0-0-------------7-7-2-2-----|-0-0-0---------------------------|
|
| Gtr I
| PM------------------------|           PM----|
| E E S S S S S S S S S S S S   S S S S S S S S S S S S S S S S
|-----------------------------|---------------------------------|
|-----------------------------|---------------------------------|
|-----------------------------|---------------------------------|
|-0-0-5-5-----8-8---------2-2-|-0-0-0---5-5-----8-8-7-7-5-5-3-3-|
|-0-0-----7-7-----4-4-0-0-----|-0-0-0-------7-7-8-8-7-7-5-5-3-3-|
|-0-0-------------------------|-0-0-0-----------8-8-7-7-5-5-3-3-|


      PM--------------------|
  E E S S S S S S S S S S S S   S S S S S S S S S S S S S S S S
|-----------------------------|------------------------------------|
|-----------------------------|-----------------4-4-3-3-1-1-3-3----|
|-----------------------------|-----------------5-5-3-3-1-1-3-3----|
|-------------5-5-------------|-7-7-7------------------------------|
|-----7-7-4-4-------------4-4-|-5-5-5---7-7-4-4--------------------|
|-0-0-------------7-7-2-2-----|-0-0-0------------------------------|
|
| PM------------------------|
| E E S S S S S S S S S S S S   S S S   S S S S S S S S S S S S S
|-----------------------------|------------------------------------|
|-----------------------------|------------------------------------|
|-----------------------------|------------------------------------|
|-0-0-5-5-----8-8---------2-2-|-0-0-0-----5-5-----8-8-7-7-5-5-3-3--|
|-0-0-----7-7-----4-4-0-0-----|-0-0-0---------7-7-8-8-7-7-5-5-3-3--|
|-0-0-------------------------|-0-0-0-------------8-8-7-7-5-5-3-3--|


  Gtr III
  E E E E E E E E   E E E E E E S S E   E E E E E E E E   E E E E E E E E
|---3-----3-----3-|---1-----1---------|-----------------|------------------|
|-----1-----1---1-|-----1-----1-----1-|-------3-----3---|-------3-----3----|
|-------0-----0---|-------0-------0---|-----4---4-----4-|-----5---5-----5--|
|-----------------|-------------0-----|---2-------2-----|---5-------5------|
|-1---------------|-1-----------------|-0---------------|-3----------------|
|-----------------|-------------------|-----------------|------------------|


  Gtr V
  Q.     E H         Q   Q   Q   Q
|------------------|-------------------|
|-8------9-6-------|-6---4---3---4-----|
|------------------|-------------------|
|------------------|-------------------|
|------------------|-------------------|
|------------------|-------------------|
|
| Gtr III
| E  E E E E E E E   E E E E E E S S E
|----3-----3-----3-|---1-----1---------|
|------1-----1---1-|-----1-----1-----1-|
|--------0-----0---|-------0-------0---|
|------------------|-------------0-----|
|-1----------------|-1-----------------|
|------------------|-------------------|


  Q    Q    Q    Q      H        Q    Q
|-----10---15---16---|---------------------|
|-8------------------|-11-------15---13----|
|--------------------|---------------------|
|--------------------|---------------------|
|--------------------|---------------------|
|--------------------|---------------------|
|
| E E  E E  E E  E E    E E E E  E E  E E
|--------------------|---------------------|
|--------3-------3---|--------3-------3----|
|------4----4------4-|------5----5------5--|
|---2---------2------|----5--------5-------|
|-0------------------|--3------------------|
|--------------------|---------------------|


  Gtr V
  Q.     E H         Q   Q   Q   Q
|------------------|-------------------|
|-8------9-6-------|-6---4---3---4-----|
|------------------|-------------------|
|------------------|-------------------|
|------------------|-------------------|
|------------------|-------------------|
|
| Gtr III
| E  E E E E E E E   E E E E E E S S E
|----3-----3-----3-|---1-----1---------|
|------1-----1---1-|-----1-----1-----1-|
|--------0-----0---|-------0-------0---|
|------------------|-------------0-----|
|-1----------------|-1-----------------|
|------------------|-------------------|


  Q    Q    Q    Q      H        Q    Q
|-----10---15---16---|---------------------|
|-8------------------|-11-------15---13----|
|--------------------|---------------------|
|--------------------|---------------------|
|--------------------|---------------------|
|--------------------|---------------------|
|
| E E  E E  E E  E E    E E E E  E E  E E
|--------------------|---------------------|
|--------3-------3---|--------3-------3----|
|------4----4------4-|------5----5------5--|
|---2---------2------|----5--------5-------|
|-0------------------|--3------------------|
|--------------------|---------------------|


  Gtr I
     |-3-|            |-3-|              |--3--|               |-3-|
  Q  S S S E E E   Q  S S S E E E    Q   S  S  S  E  E  E   Q  S S S E E E
|-8--8-8-8-8-8-8-|-7--7-7-7-7-7-7-|-10--10-10-10-10-10-10-|-8--8-8-8-8-8-8-|
|-5--5-5-5-5-5-5-|-3--3-3-3-3-3-3-|--9---9--9--9--9--9--9-|-4--4-4-4-4-4-4-|
|-0--0-0-0-0-0-0-|-0--0-0-0-0-0-0-|--0---0--0--0--0--0--0-|-0--0-0-0-0-0-0-|
|-0--0-0-0-0-0-0-|-0--0-0-0-0-0-0-|-11--11-11-11-11-11-11-|-0--0-0-0-0-0-0-|
|-0--0-0-0-0-0-0-|-0--0-0-0-0-0-0-|--0---0--0--0--0--0--0-|-0--0-0-0-0-0-0-|
|-0--0-0-0-0-0-0-|-0--0-0-0-0-0-0-|--0---0--0--0--0--0--0-|-0--0-0-0-0-0-0-|


  Gtr I
     |-3-|            |-3-|              |--3--|               |-3-|
  Q  S S S E E E   Q  S S S E E E    Q   S  S  S  E  E  E   Q  S S S E E E
|-8--8-8-8-8-8-8-|-7--7-7-7-7-7-7-|-10--10-10-10-10-10-10-|-8--8-8-8-8-8-8-|
|-5--5-5-5-5-5-5-|-3--3-3-3-3-3-3-|--9---9--9--9--9--9--9-|-4--4-4-4-4-4-4-|
|-0--0-0-0-0-0-0-|-0--0-0-0-0-0-0-|--0---0--0--0--0--0--0-|-0--0-0-0-0-0-0-|
|-0--0-0-0-0-0-0-|-0--0-0-0-0-0-0-|-11--11-11-11-11-11-11-|-0--0-0-0-0-0-0-|
|-0--0-0-0-0-0-0-|-0--0-0-0-0-0-0-|--0---0--0--0--0--0--0-|-0--0-0-0-0-0-0-|
|-0--0-0-0-0-0-0-|-0--0-0-0-0-0-0-|--0---0--0--0--0--0--0-|-0--0-0-0-0-0-0-|


  Gtr I
     |-3-|            |-3-|              |--3--|               |-3-|
  Q  S S S E E E   Q  S S S E E E    Q   S  S  S  E  E  E   Q  S S S E E W
|-8--8-8-8-8-8-8-|-7--7-7-7-7-7-7-|-10--10-10-10-10-10-10-|-8--8-8-8-8-8-8-|
|-5--5-5-5-5-5-5-|-3--3-3-3-3-3-3-|--9---9--9--9--9--9--9-|-4--4-4-4-4-4-4-|
|-0--0-0-0-0-0-0-|-0--0-0-0-0-0-0-|--0---0--0--0--0--0--0-|-0--0-0-0-0-0-0-|
|-0--0-0-0-0-0-0-|-0--0-0-0-0-0-0-|-11--11-11-11-11-11-11-|-0--0-0-0-0-0-0-|
|-0--0-0-0-0-0-0-|-0--0-0-0-0-0-0-|--0---0--0--0--0--0--0-|-0--0-0-0-0-0-0-|
|-0--0-0-0-0-0-0-|-0--0-0-0-0-0-0-|--0---0--0--0--0--0--0-|-0--0-0-0-0-0-0-|



Duration Legend
---------------
W - whole; H - half; Q - quarter; E - 8th; S - 16th; T - 32nd; X - 64th; a - acciaccatura
+ - note tied to previous; . - note dotted; .. - note double dotted
Uncapitalized letters represent notes that are staccato (1/2 duration)
Irregular groupings are notated above the duration line
Duration letters will always appear directly above the note/fret number it represents the
duration for.  Duration letters with no fret number below them represent rests.  Multi-
bar rests are notated in the form Wxn, where n is the number of bars to rest for.  Low
melody durations appear below the staff

Tablature Legend
----------------
 h   - hammer-on
 p   - pull-off
 b   - bend
 pb  - pre-bend
 r   - bend release (if no number after the r, then release immediately)
 /\  - slide into or out of (from/to "nowhere")
 s   - legato slide
 S   - shift slide
<n> - natural harmonic
[n]  - artificial harmonic
n(n) - tapped harmonic
 ~   - vibrato
 tr  - trill
 T   - tap
 TP  - trem. picking
 PM  - palm muting
\n/  - tremolo bar dip; n = amount to dip
 \n  - tremolo bar down
 n/  - tremolo bar up
/n\  - tremolo bar inverted dip
 =   - hold bend; also acts as connecting device for hammers/pulls
 <> - volume swell (louder/softer)
 x   - on rhythm slash represents muted slash
 o   - on rhythm slash represents single note slash

Misc Legend
-----------
 |  - bar
||  - double bar
||o - repeat start
o|| - repeat end
*|  - double bar (ending)
 :  - bar (freetime)
 $  - Segno
 &  - Coda
Tempo markers - <E/E./Q/Q./H/H.> = BPM(8/16=s8/s16), where s8 = swing 8ths, s16 = swing 16ths


** Generated using Power Tab Editor by Brad Larsen: The Official Power Tab Web Site