#----------------------------------PLEASE NOTE---------------------------------#
#This file is the author's own work and represents their interpretation of the #
#song. You may only use this file for private study, scholarship, or research. #
#------------------------------------------------------------------------------#

THE APPENNINE TRAIL
As recorded by Blood Vacuum
(From the 2005 Album TEMPORAL STORM)

Transcribed by MC

Words by M.Calestino Music by Matthew Calestino
Arranged by MC


Gtr I (D G C F A D) - 'joseph's guitar'
Gtr II (D G C F A D) - 'steel angels'
Gtr III (D G C F A D) - 'revenge'
Gtr IV (D G C F A D) - 'flute'
Gtr V (D G C F A D) - 'drum'

  Q=72
 4/4
  Gtr IV
       ~~~~~~                    ~
   Q   Q   Q   Q    Q   E  E  Q  Q
|-12--12--15--10--|-8--10h12-10--7--|
|-----------------|-----------------|
|-----------------|-----------------|
|-----------------|-----------------|
|-----------------|-----------------|
|-----------------|-----------------|
|
| Gtr I
|  Q   Q   Q   Q    Q   E  E  Q  Q
|-----------------|-----------------|
|----------0------|-----0h=1--0-----|
|--2---2---2---0--|-2---2-----0--0--|
|--2---2---2---0--|-3---3-----0--0--|
|--0---0---0------|-3---3-----2-----|
|--------------3--|-1------------3--|
|
| Gtr II
|  ~~~~~~~~~~~~~~~~~~~           ~~~~
|  Q   Q   Q   Q    Q   E  E  Q  Q
|-----------------|-----3h=5p=3-----|
|-----------------|-----0-----------|
|--5---5---9---9--|-7---------0--4--|
|-----------------|--------------2--|
|--7---7--10---7--|-8---------------|
|-----------------|-----------------|


           ~~        ~~                    ~~~
   Q   Q   Q   Q     Q   E  E   Q    S  S  S
|-12------17------|-20--19p17--15---------19--|
|-----10------17--|-----------------17h21-----|
|-----------------|---------------------------|
|-----------------|---------------------------|
|-----------------|---------------------------|
|-----------------|---------------------------|
|
|  Q   Q   Q   Q     Q   E  E   Q    S  S  S.
|-----------------|---------------------------|
|----------0------|------0h=1---3-------------|
|--2---2---2---0--|--2---2------0----4h=5p=4--|
|--2---2---2---0--|--3---3------0----6-----6--|
|--0---0---0------|--3---3--------------------|
|--------------3--|--1----------3----0--------|
|
|~~~~~~~~~~~~~~~~~~~~~~
|  Q   Q   Q   Q     Q   E  E   Q    S  S  S.
|-----------------|------7h=8-----------------|
|-----------------|-10---0----<12>---9h10p=9--|
|--5---5---9---5--|-10---7----<12>---9-----9--|
|--7---7--10---5--|---------------------------|
|-----------------|---------------------------|
|-----------------|------------------0--------|


  Gtr IV
       ~~~~~~                    ~
   Q   Q   Q   Q    Q   E  E  Q  Q
|-12--12--15--10--|-8--10h12-10--7--|
|-----------------|-----------------|
|-----------------|-----------------|
|-----------------|-----------------|
|-----------------|-----------------|
|-----------------|-----------------|
|
| Gtr I
|  Q   Q   Q   Q    Q   E  E  Q  Q
|-----------------|-----------------|
|----------0------|-----0h=1--0-----|
|--2---2---2---0--|-2---2-----0--0--|
|--2---2---2---0--|-3---3-----0--0--|
|--0---0---0------|-3---3-----2-----|
|--------------3--|-1------------3--|
|
| Gtr II
|  ~~~~~~~~~~~~~~~~~~~           ~~~~
|  Q   Q   Q   Q    Q   E  E  Q  Q
|-----------------|-----3h=5p=3-----|
|-----------------|-----0-----------|
|--5---5---9---9--|-7---------0--4--|
|-----------------|--------------2--|
|--7---7--10---7--|-8---------------|
|-----------------|-----------------|


           ~~        ~~                    ~~~~
   Q   Q   Q   Q     Q   E  E   Q    S  S  S
|-12------17------|-20--19p17--15---------19----|
|-----10------17--|-----------------17h21-------|
|-----------------|-----------------------------|
|-----------------|-----------------------------|
|-----------------|-----------------------------|
|-----------------|-----------------------------|
|
|  Q   Q   Q   Q     Q   E  E   Q    S  S  S.
|-----------------|-----------------------------|
|----------0------|------0h=1---3---------------|
|--2---2---2---0--|--2---2------0----4h=5p=4----|
|--2---2---2---0--|--3---3------0----6-----6----|
|--0---0---0------|--3---3----------------------|
|--------------3--|--1----------3----0----------|
|
|~~~~~~~~~~~~~~~~~~~~~~
|  Q   Q   Q   Q     Q   E  E   Q    S  S  S..
|-----------------|------7h=8-------------------|
|-----------------|-10---0----<12>---9h10p=9----|
|--5---5---9---5--|-10---7----<12>---9-----9----|
|--7---7--10---5--|-----------------------------|
|-----------------|-----------------------------|
|-----------------|------------------0----------|


  Q=82
 3/4
  Gtr I
  E  E. S S S S  E. S S S    E. S S S S  E. S S S
|---^0--0-0-0---^0--0-0-0-|-^3--3-3-3---^3--3-3-3-|
|---^1--1-1-1---^1--1-1-1-|-^3--3-3-3---^0--0-0-0-|
|-1-^2--2-2-2---^2--2-2-2-|-^0--0-0-0---^0--0-0-0-|
|-2-^2--2-2-2---^2--2-2-2-|-^0--0-0-0---^0--0-0-0-|
|-2-^0--0-0-0---^0--0-0-0-|-----------------------|
|-0-----------------------|-^3--3-3-3---^3--3-3-3-|


   E. S S S S  E. S S S   S S S S S S H
|-^1--1-1-1---^0--0-0-0-|-------------5----|--|
|-^1--1-1-1---^0--0-0-0-|-----------5-5----|--|
|-^2--2-2-2---^1--1-1-1-|-----2h4-5---5----|--|
|-^3--3-3-3---^2--2-2-2-|---2--------------|--|
|-^3--3-3-3---^2--2-2-2-|-0----------------|--|
|-^1--1-1-1---^0--0-0-0-|------------------|--|


  E  E. S S S S  E. S S S    E. S S S S  E. S S S
|---^0--0-0-0---^0--0-0-0-|-^3--3-3-3---^3--3-3-3-|
|---^1--1-1-1---^1--1-1-1-|-^3--3-3-3---^0--0-0-0-|
|-1-^2--2-2-2---^2--2-2-2-|-^0--0-0-0---^0--0-0-0-|
|-2-^2--2-2-2---^2--2-2-2-|-^0--0-0-0---^0--0-0-0-|
|-2-^0--0-0-0---^0--0-0-0-|-----------------------|
|-0-----------------------|-^3--3-3-3---^3--3-3-3-|


   E. S S S S  E. S S S   S S S S S S H
|-^1--1-1-1---^0--0-0-0-|-------------5----|
|-^1--1-1-1---^0--0-0-0-|-----------5-5----|
|-^2--2-2-2---^1--1-1-1-|-----2h4-5---5----|
|-^3--3-3-3---^2--2-2-2-|---2--------------|
|-^3--3-3-3---^2--2-2-2-|-0----------------|
|-^1--1-1-1---^0--0-0-0-|------------------|


  E  E. S S S S  E. S S S S
|---^0--0-0-0---^0--0-0-0---|
|---^1--1-1-1---^1--1-1-1---|
|---^0--0-0-0---^0--0-0-0---|
|---^2--2-2-2---^2--2-2-2---|
|---^3--3-3-3---^3--3-3-3---|
|---------------------------|


   E. S S S S  E. S S S S    E. S S S S  E. S S S S
|-^0--0-0-0---^0--0-0-0---|-^0--0-0-0---^0--0-0-0---|
|-^0--0-0-0---^0--0-0-0---|-^1--1-1-1---^1--1-1-1---|
|-^0--0-0-0---^0--0-0-0---|-^0--0-0-0---^0--0-0-0---|
|-^2--2-2-0---^2--2-2-0---|-^2--2-2-2---^2--2-2-2---|
|-^2--2-2-2---^2--2-2-2---|-^3--3-3-3---^3--3-3-3---|
|-^0--0-0-0---^0--0-0-0---|-^3--3-3-3---^3--3-3-3---|


   E. S S S S  E. S S E S    E. S S S S  E. S S S S    E. S S S S  H.
|-^0--0-0-0---^0--0-0-0---|-^0--0-0-0---^0--0-0-0---|-^0--0-0-0---^0-----|
|-^0--0-0-0---^0--0-0-0---|-^1--1-1-1---^1--1-1-1---|-^0--0-0-0---^0-----|
|-^0--0-0-0---^0--0-0-0---|-^0--0-0-0---^0--0-0-0---|-^2--2-2-2---^1-----|
|-^2--2-2-0---^2--2-2-2---|-^2--2-2-2---^2--2-2-2---|-^2--2-2-2---^2-----|
|-^2--2-2-2---^2--2-2-2---|-^3--3-3-3---^3--3-3-3---|-^2--2-2-2---^2-----|
|-^0--0-0-0---^0--0-0-0---|-------------------------|-^0--0-0-0---^0-----|


  e Q  E Q    E W
|-5-4----7--|-4-5----|
|-6-5--5----|---5----|
|--------7--|-4-5----|
|------6----|--------|
|-0------7--|-2-0----|
|---0-------|--------|


  Q  Q  Q    Q  Q  E E   Q  Q  Q    Q  Q  Q    Q  E E Q    S S S.
|----------|-----------|----------|----------|-----------|---------|
|-------0--|-------0h1-|-0--------|----0-----|----0h1-3--|---------|
|-2--2--2--|-0--2--2---|-0--0--2--|-2--2--0--|-2--2---0--|-4h5p4---|
|-2--2--2--|-0--3--3---|-0--0--2--|-2--2--0--|-3--3---0--|-6---6---|
|-0--0--0--|----3--3---|-2-----0--|-0--0-----|-3--3------|---------|
|----------|-3--1------|----3-----|-------3--|-1------3--|-0-------|


  Gtr II
  ~~~~~~~~~~~~~~~~~          ~~~~~~~~~~~~~~~~~~~~~~~
  Q  Q   Q    Q  Q  E E   Q  Q  Q    Q   Q  Q     Q  E E   Q     S  S S.
|-----------|-------3h5p|=3--------|-----------|-----7h8-------|----------|
|-----------|-------0---|----------|-----------|-10--0---<12>--|-9h10p9---|
|-5--5---9--|-9--7------|-0--4--5--|-5---9--5--|-10--7---<12>--|-9----9---|
|-----------|-----------|----2--7--|-7--10--5--|---------------|----------|
|-7--7--10--|-7--8------|----------|-----------|---------------|----------|
|-----------|-----------|----------|-----------|---------------|-0--------|


  Gtr I
  E  E. S S S S  E.   S S S S  E. S S S S  E.
|---^0--0-0-0---^0--|-0-0-0---^3--3-3-3---^3--|
|---^1--1-1-1---^1--|-1-1-1---^3--3-3-3---^0--|
|-1-^2--2-2-2---^2--|-2-2-2---^0--0-0-0---^0--|
|-2-^2--2-2-2---^2--|-2-2-2---^0--0-0-0---^0--|
|-2-^0--0-0-0---^0--|-0-0-0-------------------|
|-0-----------------|---------^3--3-3-3---^3--|


  S S S S  E. S S S S  E.   S S S S S S S S S H
|-3-3-3---^1--1-1-1---^0--|-0-0-0-------------5----|
|-0-0-0---^1--1-1-1---^0--|-0-0-0-----------5-5----|
|-0-0-0---^2--2-2-2---^1--|-1-1-1-----2h4-5---5----|
|-0-0-0---^3--3-3-3---^2--|-2-2-2---2--------------|
|---------^3--3-3-3---^2--|-2-2-2-0----------------|
|-3-3-3---^1--1-1-1---^0--|-0-0-0------------------|


  E  E. S S S S  E.   S S S  E. S S S S  E.
|---^0--0-0-0---^0--|-0-0-0-^3--3-3-3---^3--|
|---^1--1-1-1---^1--|-1-1-1-^3--3-3-3---^0--|
|-1-^2--2-2-2---^2--|-2-2-2-^0--0-0-0---^0--|
|-2-^2--2-2-2---^2--|-2-2-2-^0--0-0-0---^0--|
|-2-^0--0-0-0---^0--|-0-0-0-----------------|
|-0-----------------|-------^3--3-3-3---^3--|


  S S S  E. S S S S  E.   S S S S S S S S S H
|-3-3-3-^1--1-1-1---^0--|-0-0-0-------------5----|
|-0-0-0-^1--1-1-1---^0--|-0-0-0-----------5-5----|
|-0-0-0-^2--2-2-2---^1--|-1-1-1-----2h4-5---5----|
|-0-0-0-^3--3-3-3---^2--|-2-2-2---2--------------|
|-------^3--3-3-3---^2--|-2-2-2-0----------------|
|-3-3-3-^1--1-1-1---^0--|-0-0-0------------------|


   E. S S S S  E. S S   S S  E. S S S S  E.   S S S S  E. S S S S  E.   S S S
|-^0--0-0-0---^0--0-0-|-0---^0--0-0-0---^0--|-0-0-0---^0--0-0-0---^0--|-0-0-0-|
|-^1--1-1-1---^1--1-1-|-1---^0--0-0-0---^0--|-0-0-0---^1--1-1-1---^1--|-1-1-1-|
|-^0--0-0-0---^0--0-0-|-0---^0--0-0-0---^0--|-0-0-0---^0--0-0-0---^0--|-0-0-0-|
|-^2--2-2-2---^2--2-2-|-2---^2--2-2-0---^2--|-2-2-0---^2--2-2-2---^2--|-2-2-2-|
|-^3--3-3-3---^3--3-3-|-3---^2--2-2-2---^2--|-2-2-2---^3--3-3-3---^3--|-3-3-3-|
|---------------------|-----^0--0-0-0---^0--|-0-0-0---^3--3-3-3---^3--|-3-3-3-|


   E. S S S S  E. S S   E S  E. S S S S  E.   S S S S  E. S S S S  H.
|-^0--0-0-0---^0--0-0-|-0---^0--0-0-0---^0--|-0-0-0---^0--0-0-0---^0-----|
|-^0--0-0-0---^0--0-0-|-0---^1--1-1-1---^1--|-1-1-1---^0--0-0-0---^0-----|
|-^0--0-0-0---^0--0-0-|-0---^0--0-0-0---^0--|-0-0-0---^2--2-2-2---^1-----|
|-^2--2-2-0---^2--2-2-|-2---^2--2-2-2---^2--|-2-2-2---^2--2-2-2---^2-----|
|-^2--2-2-2---^2--2-2-|-2---^3--3-3-3---^3--|-3-3-3---^2--2-2-2---^2-----|
|-^0--0-0-0---^0--0-0-|-0-------------------|---------^0--0-0-0---^0-----|


                            Gtr III
                            <
                            TPTPTPTPTPTPTPTP
  e Q  E Q    W        H    T T T T T T T T
|-5-4----7--|-4-----------------------------|
|-6-5--5----|-------------------------------|
|--------7--|-4-------------2-2-2-2-2-2-2-2-|
|------6----|---------------2-2-2-2-2-2-2-2-|
|-0------7--|-2-------------0-0-0-0-0-0-0-0-|
|---0-------|-------------------------------|


  TPTPTPTPTPTPTPTP  TPTPTPTPTPTPTPTP
  T T T T T T T T   T T T T T T T T
|-----------------|-------------------|
|-----------------|-------------------|
|-2-2-2-2-2-2-2-2-|-2-2-2-2-2-2-2-2---|
|-2-2-2-2-2-2-2-2-|-2-2-2-2-2-2-2-2---|
|-0-0-0-0-0-0-0-0-|-0-0-0-0-0-0-0-0---|
|-----------------|-------------------|


  TPTPTPTPTPTPTPTP  TPTPTPTPTPTPTPTP  TPTPTPTPTPTPTPTP  TPTPTPTPTPTPTPTP
  T T T T T T T T   T T T T T T T T   T T T T T T T T   T T T T T T T T
|-----------------|-----------------|-----------------|-----------------|
|-----------------|-----------------|-----------------|-----------------|
|-2-2-2-2-2-2-2-2-|-2-2-2-2-2-2-2-2-|-2-2-2-2-2-2-2-2-|-2-2-2-2-2-2-2-2-|
|-2-2-2-2-2-2-2-2-|-2-2-2-2-2-2-2-2-|-2-2-2-2-2-2-2-2-|-2-2-2-2-2-2-2-2-|
|-0-0-0-0-0-0-0-0-|-0-0-0-0-0-0-0-0-|-0-0-0-0-0-0-0-0-|-0-0-0-0-0-0-0-0-|
|-----------------|-----------------|-----------------|-----------------|


  Q Q Q Q   W
|---------|------|
|---------|------|
|-2-2-2-2-|-5----|
|-2-2-2-2-|-2----|
|-0-0-0-0-|-0----|
|---------|------|


 4/4
  Gtr I
  Q  Q  Q  Q   H     H    Q  Q   Q   Q     Q   Q   H
|------------|----------|--------------|----------------|
|------------|----------|-----------10-|----------------|
|-5--2--4--0-|-2-----2--|-5--7---9-----|--10---9---9----|
|-7--2--5--0-|-2-----2--|-7--9--10--10-|--12--10--10----|
|-0--0-------|-0-----0--|-0------------|-----------0----|
|----------3-|----------|----7---8---8-|---0------------|


  Q  Q  Q  Q    H    H      Q  Q   Q   Q     Q   Q   H
|-------------|-----------|---------------|---------------|
|-------------|-----------|-----------10--|---------------|
|-5--2--4--0--|-2----2----|-5--7---9------|-10---9---9----|
|-7--2--5--0--|-2----2----|-7--9--10--10--|-12--10--10----|
|-0--0--------|-0----0----|-0-------------|----------0----|
|----------3--|-----------|----7---8---8--|--0------------|


  Q  Q  Q  Q    H    H      H    H      W
|-------------|-----------|-----------|------|
|-------------|-----------|-3----0----|-1----|
|-5--2--4--0--|-2----2----|-0----0----|-2----|
|-7--2--5--0--|-2----2----|-0----0----|-2----|
|-0--0--------|-0----0----|------2----|-0----|
|----------3--|-----------|-3---------|------|



Duration Legend
---------------
W - whole; H - half; Q - quarter; E - 8th; S - 16th; T - 32nd; X - 64th; a - acciaccatura
+ - note tied to previous; . - note dotted; .. - note double dotted
Uncapitalized letters represent notes that are staccato (1/2 duration)
Irregular groupings are notated above the duration line
Duration letters will always appear directly above the note/fret number it represents the
duration for.  Duration letters with no fret number below them represent rests.  Multi-
bar rests are notated in the form Wxn, where n is the number of bars to rest for.  Low
melody durations appear below the staff

Tablature Legend
----------------
 h   - hammer-on
 p   - pull-off
 b   - bend
 pb  - pre-bend
 r   - bend release (if no number after the r, then release immediately)
 /\  - slide into or out of (from/to "nowhere")
 s   - legato slide
 S   - shift slide
<n> - natural harmonic
[n]  - artificial harmonic
n(n) - tapped harmonic
 ~   - vibrato
 tr  - trill
 T   - tap
 TP  - trem. picking
 PM  - palm muting
\n/  - tremolo bar dip; n = amount to dip
 \n  - tremolo bar down
 n/  - tremolo bar up
/n\  - tremolo bar inverted dip
 =   - hold bend; also acts as connecting device for hammers/pulls
 <> - volume swell (louder/softer)
 x   - on rhythm slash represents muted slash
 o   - on rhythm slash represents single note slash

Misc Legend
-----------
 |  - bar
||  - double bar
||o - repeat start
o|| - repeat end
*|  - double bar (ending)
 :  - bar (freetime)
 $  - Segno
 &  - Coda
Tempo markers - <E/E./Q/Q./H/H.> = BPM(8/16=s8/s16), where s8 = swing 8ths, s16 = swing 16ths


** Generated using Power Tab Editor by Brad Larsen: The Official Power Tab Web Site