#----------------------------------PLEASE NOTE---------------------------------#
#This file is the author's own work and represents their interpretation of the #
#song. You may only use this file for private study, scholarship, or research. #
#------------------------------------------------------------------------------#

UNCOVERING THE SCROLL
As recorded by Blood Vacuum
(From the 2005 Album TEMPORAL STORM)

Transcribed by M.Calestino

Words by MC Music by M.Calestino
Arranged by MC


Gtr I (D G C F A D) - 'piano'
Gtr II (D G C F A D) - 'strings'
Gtr III (D G C F A D) - 'clarinet'
Gtr IV (D G C F A D) - 'rhythm'

  Q=96
 4/4
  Gtr I
  E  E   E   E   E  E  E E   E  E   E   E   E  E  E E
|---------------12--0----0-|---------------12--0----0-|
|-----------12--------12---|-----------12--------12---|
|----9--12-----------------|----9--12-----------------|
|--------------------------|--------------------------|
|--------------------------|--------------------------|
|-0-(0)-(0)-(0)-(0)--------|-0-(0)-(0)-(0)-(0)--------|


  E  E   E   E   E   E  E E   E  E   E   E   E   E  E E
|---------------11----------|---------------11-----------|
|-----------10------10----0-|-----------10------10----0--|
|----8--11-------------11---|----8--11-------------11----|
|---------------------------|----------------------------|
|-0-(0)-(0)-(0)-(0)---------|-0-(0)-(0)-(0)-(0)----------|
|---------------------------|----------------------------|


   E E E E E E E E   E E E E E E E E   E  E E E E E E E    E  E E E E E E E
|----------7-----7-|---------7-----7-|----------7-----7-|-----------7-----7-|
|--------8-----8---|-------8-----8---|--------8-----8---|---------8-----8---|
|------9-----9-----|-----9-----9-----|------9-----9-----|-------9-----9-----|
|----9-------------|---9-------------|---10-------------|----10-------------|
|--7---------------|-7---------------|-7----------------|--7----------------|
|--0---------------|-7---------------|-3----------------|--0----------------|
|
| Gtr II
|  <
|  W                 W                 W                   W
|-12---------------|-7---------------|-8----------------|-24----------------|
|--0---------------|-0---------------|-8----------------|--5----------------|
|--0---------------|-0---------------|-5----------------|--4----------------|
|--2---------------|-2---------------|-2----------------|--5----------------|
|------------------|-----------------|------------------|-------------------|
|------------------|-----------------|------------------|-------------------|


  Gtr II
   W                                     W                  H        Q    Q
|-24----------------|------------------|-----------------|--------------------|
|-------------------|------------------|-9---------------|-15-------13---12---|
|-------------------|------------------|-9---------------|--------------------|
|-------------------|------------------|-----------------|--------------------|
|-------------------|------------------|-----------------|--------------------|
|-------------------|------------------|-----------------|--------------------|
|
| Gtr I
|  E  E E E E E E E   E  E E E E E E E   E E E E E E E E    E E E E  E E  E E
|-----------7-----7-|----------7-----7-|---------7-----7-|-----------7------7-|
|---------8-----8---|--------8-----8---|-------9-----9---|--------9-------9---|
|-------7-----7-----|------7-----7-----|-----7-----9-----|------7------9------|
|----10-------------|---10-------------|---9-------------|----9---------------|
|--7----------------|-7----------------|-7---------------|-11-----------------|
|--8----------------|-3----------------|-0---------------|--0-----------------|


  Gtr II
   W                            W
|----------------------------|------------------|
|-13-------------------------|-10---------------|
|----------------------------|------------------|
|----------------------------|------------------|
|----------------------------|------------------|
|----------------------------|------------------|
|
| Gtr I
|  E  E   E   E   E   E  E E    E E E E E E E E
|-------------5---8------5-8-|--------5-8---5-8-|
|---------5-----------5------|------5-----5-----|
|-----5----------------------|----5-------------|
|--7-------------------------|--7---------------|
|--0-(0)-(0)-(0)-(0)-(0)-----|--3---------------|
|----------------------------|------------------|


   W                        W
|------------------------|-12---------------------|
|-12---------------------|------------------------|
|-13---------------------|-13---------------------|
|------------------------|------------------------|
|------------------------|------------------------|
|------------------------|------------------------|
|
|  E  E   E   E  E E E E    E  E   E   E  E E E E
|----------------4-----4-|----------------4-----4-|
|-------------5------5---|-------------5------5---|
|---------4--------4-----|---------4--------4-----|
|-----0------------------|-----0------------------|
|------------------------|------------------------|
|--4-(4)-(4)-(4)---------|--4-(4)-(4)-(4)---------|


  W                 W
  Gtr II
                                       W                  Q    Q    H
|-----------------|-----------------|------------------|--------------------|
|-----------------|-----------------|------------------|--------------------|
|-----------------|-----------------|-13---------------|-14--------13-------|
|-----------------|-----------------|------------------|------16------------|
|-----------------|-----------------|------------------|--------------------|
|-----------------|-----------------|------------------|--------------------|
|
| Gtr I
| E E E E E E E E   E E E E E E E E    E E E E E E E E    E E  E E  E E E E
|---------2-----2-|---------2-----2-|------------------|--------------------|
|-------4-----4---|-------4-----4---|----------0-----0-|------------0-----0-|
|-----2-----2-----|-----2-----2-----|--------1-----1---|---------1------1---|
|---4-------------|---4-------------|------2-----2-----|-------2------2-----|
|-----------------|-----------------|----2-------------|----2---------------|
|-2---------------|-2---------------|--0---------------|--0-----------------|


  Gtr I
  E E E E E E E E   E E E E E E E E   E E E E E E E E   E E E E E E E E
|-----------------|-----------------|-----------------|-----------------|
|---------0-----0-|---------0-----0-|-------0-1-----1-|-------0-1-----1-|
|-------1-----1---|-------1-----1---|-----2-------2---|-----2-------2---|
|-----0-----0-----|-----0-----0-----|---2-------2-----|---2-------2-----|
|---2-------------|---2-------------|-0---------------|-0---------------|
|-0---------------|-0---------------|-----------------|-----------------|


  E E E E E E E E   E E E E E E E E   E E E E E E E E   E E E E E E E E
|-----------------|-----------------|-----------------|-----------------|
|-------0-3---0-3-|-------0-3---0-3-|-------0-1-----1-|-------0-1-----1-|
|-----1-----1-----|-----1-----1-----|-----2-------2---|-----2-------2---|
|---0-------------|---0-------------|---2-------2-----|---2-------2-----|
|-2---------------|-2---------------|-3---------------|-3---------------|
|-----------------|-----------------|-----------------|-----------------|


  E E E E E E E E   E E E E E E E W
|---------0-----0-|---------0-----0-|----|
|-------0-----0---|-------0-----0---|----|
|-----1-----1-----|-----1-----1-----|----|
|---2-------------|---2-------------|----|
|-----------------|-----------------|----|
|-4---------------|-4---------------|----|


   E  E   E   E   E  E E  E  E E E E   E  E   E  E E E E E E E E E
|-10---------10--------8-------8-----|-8---------------------------|
|-----7-----------7-------7------7---|----8------8-----------7-----|
|---------7----------7-------7-----7-|--------8----8-0-----0---0---|
|--0-(0)-(0)-(0)-(0)---0-(0)---------|-------------------0-------0-|
|------------------------------------|-----------------9-----------|
|--2---------------------------------|-8-(8)-(8)-------2-----------|


  E E E E E E E E E  E   E   E    E E E E E E E E E E E E
|-------8-----6------5----------|-------3-----------3--------|
|-----7---7-----7--------7------|-----5---5-------5---4------|
|---5-------5-------------------|---4-------4---4-------5----|
|-7---------------7----------7--|-5-----------5--------------|
|-------------------------------|----------------------------|
|-5---------------5-(5)-(5)-(5)-|-0--------------------------|


  E E E E E E E E E E E E   H    H      H    W
|-------2-----------3-----|-0----0----|------0----|
|-----5---5-------4---4---|-0----1----|-1----0----|
|---5-------5---4-------4-|-0----0----|-2----1----|
|-4-----------4-----------|-2----2----|-2----2----|
|-3-----------2-----------|-2----3----|-0----2----|
|-------------------------|-0---------|------0----|


  E  E E  E  E E  E  E   E  E E  E  E  E E  E
|--------------0-------|----------------------|
|-----------12---12----|-----------12---------|
|--------11---------11-|--------11----11---11-|
|------9---------------|------9----------9----|
|---10-----------------|---10-----------------|
|-0--------------------|-0--------------------|


  E  E  E  E E  E  E  E    E  E  E  E  E  E  E  E
|------------0----------|-------------------------|
|---------12---12-------|----------12----------12-|
|------11---------11----|-------11----------12----|
|---10---------------10-|----10----------12-------|
|-9---------------------|-12----------10----------|
|-----------------------|-------------------------|


  Gtr III
  Q     Q     Q    Q       Q     Q     Q     Q
|-----------------------|-------------10----12----|
|-----------------10----|-12----13----------------|
|-9----11----12---------|-------------------------|
|-----------------------|-------------------------|
|-----------------------|-------------------------|
|-----------------------|-------------------------|
|
| Gtr I
| E  E  E  E  E E  E  E    E  E  E  E  E  E  E  E
|---------------0-------|-------------------------|
|------------12---12----|-------------12----------|
|---------11---------11-|----------11----11----11-|
|-------9---------------|--------9-----------9----|
|---10------------------|----10-------------------|
|-0---------------------|--0----------------------|
|
| Gtr IV
| W                        W
|-0---------------------|--2----------------------|
|-5---------------------|--5----------------------|
|-4---------------------|--4----------------------|
|-5---------------------|--4----------------------|
|-2---------------------|--2----------------------|
|-0---------------------|--0----------------------|


   H.                Q       H           Q     S  S S
|-14----------------------|----------------------------|
|-------------------------|-10-----------8-----7h=8-7--|
|--------------------7----|----------------------------|
|-------------------------|----------------------------|
|-------------------------|----------------------------|
|-------------------------|----------------------------|
|
|  E   E  E  E E  E  E  E    E  E  E  E  E  E  E  E
|--------------0----------|----------------------------|
|-----------12---12-------|----------12----------12----|
|--------11---------11----|-------11----------12-------|
|-----10---------------10-|----10----------12----------|
|--9----------------------|-12----------10-------------|
|-------------------------|----------------------------|
|
|  W                         H           H
|--0----------------------|--0-----------2-------------|
|--0----------------------|--5-----------0-------------|
|--4----------------------|--0-----------0-------------|
|--4----------------------|--4-----------0-------------|
|--3----------------------|--3-------------------------|
|--2----------------------|--5-----------3-------------|


  Gtr III
  E  E  E  E  E  E  E  E    Q     Q     Q     Q
|------------------------|-------------12----10----|
|------------------10----|-12----13----------------|
|-9----11----12-------11-|-------------------------|
|----9----12----14-------|-------------------------|
|------------------------|-------------------------|
|------------------------|-------------------------|
|
| Gtr I
| E  E  E  E  E  E  E  E    E  E  E  E  E  E  E  E
|----------------0-------|-------------------------|
|------------12----12----|-------------12----------|
|---------11----------11-|----------11----11----11-|
|-------9----------------|--------9-----------9----|
|---10-------------------|----10-------------------|
|-0----------------------|--0----------------------|


  H.                E  E  E    H           W
|-8-----------------8----10-|----------------------------|
|---------------------------|-10----------12-------------|
|----------------------9----|----------------------------|
|---------------------------|----------------------------|
|---------------------------|----------------------------|
|---------------------------|----------------------------|
|
| E   E  E  E E  E  E  E       E  E  E  E  E  E  E  W
|-------------0-------------|----------------------------|
|----------12---12----------|----------12----------12----|
|-------11---------11-------|-------11----------12-------|
|----10---------------10----|----10----------12----------|
|-9-------------------------|-12----------10-------------|
|---------------------------|----------------------------|



Duration Legend
---------------
W - whole; H - half; Q - quarter; E - 8th; S - 16th; T - 32nd; X - 64th; a - acciaccatura
+ - note tied to previous; . - note dotted; .. - note double dotted
Uncapitalized letters represent notes that are staccato (1/2 duration)
Irregular groupings are notated above the duration line
Duration letters will always appear directly above the note/fret number it represents the
duration for.  Duration letters with no fret number below them represent rests.  Multi-
bar rests are notated in the form Wxn, where n is the number of bars to rest for.  Low
melody durations appear below the staff

Tablature Legend
----------------
 h   - hammer-on
 p   - pull-off
 b   - bend
 pb  - pre-bend
 r   - bend release (if no number after the r, then release immediately)
 /\  - slide into or out of (from/to "nowhere")
 s   - legato slide
 S   - shift slide
<n> - natural harmonic
[n]  - artificial harmonic
n(n) - tapped harmonic
 ~   - vibrato
 tr  - trill
 T   - tap
 TP  - trem. picking
 PM  - palm muting
\n/  - tremolo bar dip; n = amount to dip
 \n  - tremolo bar down
 n/  - tremolo bar up
/n\  - tremolo bar inverted dip
 =   - hold bend; also acts as connecting device for hammers/pulls
 <> - volume swell (louder/softer)
 x   - on rhythm slash represents muted slash
 o   - on rhythm slash represents single note slash

Misc Legend
-----------
 |  - bar
||  - double bar
||o - repeat start
o|| - repeat end
*|  - double bar (ending)
 :  - bar (freetime)
 $  - Segno
 &  - Coda
Tempo markers - <E/E./Q/Q./H/H.> = BPM(8/16=s8/s16), where s8 = swing 8ths, s16 = swing 16ths


** Generated using Power Tab Editor by Brad Larsen: The Official Power Tab Web Site