#----------------------------------PLEASE NOTE---------------------------------#
#This file is the author's own work and represents their interpretation of the #
#song. You may only use this file for private study, scholarship, or research. #
#------------------------------------------------------------------------------#

A RESTLESS SOUL
As recorded by Blood Vacuum
(From the 2006 Album HOPELESS IN C MINOR)

Transcribed by M.C

Words by M.Calestino & T. Rao Music by Matthew Calestino & Tom Rao
Arranged by M.Calestino


Gtr I (C G C F A D) - 'Sea Death'
Gtr II (C G C F A D) - 'creepy seaweed'
Gtr III (C G C F A D) - 'keys to Dis'
Gtr IV (E A D G B E) - 'ocean mirror'
Gtr V (C# G C F A D) - 'undead lead'

 4/4
  Gtr II
  ~~~~~~~~~~~~~~~~~~~~~~~~~~~~~~~~~~~~~~~~~~~~~~
  W          H    H      H    Q  Q    W
|----------|-----------|------------|----------|
|----------|-----------|------------|----------|
|----------|-----------|------------|----------|
|-7--------|-5---------|-8----7--5--|-7--------|
|----------|------5----|------------|----------|
|-7--------|-5----0----|-8----7--5--|-7--------|
|
| Gtr IV
| W                      W
|----------|-----------|------------|----------|
|----------|-----------|------------|----------|
|----------|-----------|------------|----------|
|----------|-----------|------------|----------|
|----------|-----------|------------|----------|
|-0--------|-----------|-0----------|----------|


 ~~~~~~~~~~~~~~~~~~~~~~~~~~~~~~~~~~~~~
  W          W          W        S H.      Q
|----------|----------|-------------------------|
|----------|----------|-------------------------|
|----------|----------|-------------------------|
|-7--------|-5--------|-3--------0--------------|
|----------|----------|-------------------------|
|-7--------|-5--------|-3--------0---------7----|
|
| W                     W
|----------|----------|-------------------------|
|----------|----------|-------------------------|
|----------|----------|-------------------------|
|----------|----------|-------------------------|
|----------|----------|-------------------------|
|-0--------|----------|-0-----------------------|


  Q=92
 4/4
  Gtr III
  ~~~~~~~~~~~~~~~~~~~~~~~~~~~~~~~~~~~~~~~~~~~~~~~~~~~~~~~~~~~~~~~~~~~~~
  H.                                 H.
|----------------------------------|----------------------------------|
|----------------------------------|----------------------------------|
|-9--------------------------------|-3--------------------------------|
|-7--------------------------------|-5--------------------------------|
|-5--------------------------------|-5--------------------------------|
|----------------------------------|----------------------------------|
|
| Gtr I
|        PM      PM                         PM      PM
| |-3--|   |-3-|   |-3-|   |-3-|     |-3--|   |-3-|   |-3-|   |-3-|
| s  s s s s s s s s s s s s s s S   s  s s s s s s s s s s s s s s S
|----------------------------------|----------------------------------|
|----------------------------------|----------------------------------|
|-9--9-9---9-9-9---9-9-9---9-9-9---|-3--3-3---3-3-3---3-3-3---3-3-3---|
|-7--7-7---7-7-7---7-7-7---7-7-7---|-5--5-5---5-5-5---5-5-5---5-5-5---|
|-0--0-0---0-0-0---0-0-0---0-0-0---|-0--0-0---0-0-0---0-0-0---0-0-0---|
|-0--0-0-x-0-0-0-x-0-0-0-x-0-0-0-x-|-0--0-0-x-0-0-0-x-0-0-0-x-0-0-0-x-|


 ~~~~~~~~~~~~~~~~~~~~~~~~~~~~~~~~~~~~~~~
  H.                                 H.
|----------------------------------|------------------------------------|
|----------------------------------|-5----------------------------------|
|-7--------------------------------|-5----------------------------------|
|-8--------------------------------|-5----------------------------------|
|-5--------------------------------|-0----------------------------------|
|----------------------------------|------------------------------------|
|
|        PM      PM                         PM      PM
| |-3--|   |-3-|   |-3-|   |-3-|     |-3--|   |-3-|   |-3-|   |-3-|
| s  s s s s s s s s s s s s s s S   s  s s s s s s s s s s s s s s S
|----------------------------------|------------------------------------|
|----------------------------------|------------------------------------|
|-7--7-7---7-7-7---7-7-7---7-7-7---|-5--5-5---5-5-5---5-5-5---5-5-5-----|
|-8--8-8---8-8-8---8-8-8---8-8-8---|-7--7-7---7-7-7---7-7-7---7-7-7-----|
|-0--0-0---0-0-0---0-0-0---0-0-0---|-0--0-0---0-0-0---0-0-0---0-0-0-----|
|-0--0-0-x-0-0-0-x-0-0-0-x-0-0-0-x-|-0--0-0-x-0-0-0-x-0-0-0-x-0-0-0-x---|


  ~~~~~~~~~~~~~~~~~~~~~~~~~~~~~~~~~~~~~~~~~~~~~~~~~~~~~~~~~~~~~~~~~~~~~
  H.                                 H.
|----------------------------------|----------------------------------|
|----------------------------------|----------------------------------|
|-9--------------------------------|-3--------------------------------|
|-7--------------------------------|-5--------------------------------|
|-5--------------------------------|-5--------------------------------|
|----------------------------------|----------------------------------|
|
|        PM      PM                         PM      PM
| |-3--|   |-3-|   |-3-|   |-3-|     |-3--|   |-3-|   |-3-|   |-3-|
| s  s s s s s s s s s s s s s s S   s  s s s s s s s s s s s s s s S
|----------------------------------|----------------------------------|
|----------------------------------|----------------------------------|
|-9--9-9---9-9-9---9-9-9---9-9-9---|-3--3-3---3-3-3---3-3-3---3-3-3---|
|-7--7-7---7-7-7---7-7-7---7-7-7---|-5--5-5---5-5-5---5-5-5---5-5-5---|
|-0--0-0---0-0-0---0-0-0---0-0-0---|-0--0-0---0-0-0---0-0-0---0-0-0---|
|-0--0-0-x-0-0-0-x-0-0-0-x-0-0-0-x-|-0--0-0-x-0-0-0-x-0-0-0-x-0-0-0-x-|


 ~~~~~~~~~~~~~~~~~~~~~~~~~~~~~~~~~~~~~~~
  H.                                 H.
|----------------------------------|-------------------------------------|
|----------------------------------|-5-----------------------------------|
|-7--------------------------------|-5-----------------------------------|
|-8--------------------------------|-5-----------------------------------|
|-5--------------------------------|-0-----------------------------------|
|----------------------------------|-------------------------------------|
|
| PM     PM      PM                         PM      PM
| |-3--|   |-3-|   |-3-|   |-3-|     |-3--|   |-3-|   |-3-|   |-3-|
| s  s s s s s s s s s s s s s s S   s  s s s s s s s s s s s s s s S
|----------------------------------|-------------------------------------|
|----------------------------------|-------------------------------------|
|-7--7-7---7-7-7---7-7-7---7-7-7---|-5--5-5---5-5-5---5-5-5---5-5-5------|
|-8--8-8---8-8-8---8-8-8---8-8-8---|-7--7-7---7-7-7---7-7-7---7-7-7------|
|-0--0-0---0-0-0---0-0-0---0-0-0---|-0--0-0---0-0-0---0-0-0---0-0-0------|
|-0--0-0-x-0-0-0-x-0-0-0-x-0-0-0-x-|-0--0-0-x-0-0-0-x-0-0-0-x-0-0-0-x----|


  Gtr I
  PM----------------------------------------------------------------------|
  E E  E E E E E E   E E  E E E E E E   E E  E E E E E E   E E  E E E E E E
|------------------|------------------|------------------|------------------|
|------------------|------------------|------------------|------------------|
|------------------|------------------|------------------|------------------|
|-0-0--------------|-0-0--------------|-0-0--------------|-0-0--------------|
|-0-0-/7-5---8---7-|-0-0-/7-5---8---7-|-0-0-/7-5---8---7-|-0-0-/7-5---8---7-|
|-0-0------7---7---|-0-0------7---7---|-0-0------7---7---|-0-0------7---7---|


  PM----------------------------------------------------------------------|
  E E  E E E E E E   E E  E E E E E E   E E  E E E E E E   E E  E E E E E E
|------------------|------------------|------------------|------------------|
|------------------|------------------|------------------|------------------|
|------------------|------------------|------------------|------------------|
|-0-0--------------|-0-0--------------|-0-0--------------|-0-0--------------|
|-0-0-/7-5---8---7-|-0-0-/7-5---8---7-|-0-0-/7-5---8---7-|-0-0-/7-5---8---7-|
|-0-0------7---7---|-0-0------7---7---|-0-0------7---7---|-0-0------7---7---|


  PM------------|
  E E E E E E E E   H      H   H       H    H      H
|-----------------|----------|------------|-----------|
|-----------------|--------3-|------------|-----------|
|-----------------|--------2-|---------5--|--------7--|
|-0-0-0-0-0-0-0-0-|-0------0-|-3-------5--|-5------7--|
|-0-0-0-0-0-0-0-0-|-0--------|-3-------3--|-5------5--|
|-0-0-0-0-0-0-0-0-|-0--------|-3-------3--|-5------5--|


  H    E  E  E  E
|-----------------|----|
|-----------------|----|
|--------10-10-10-|----|
|-8----8--8--8--8-|----|
|-8----8--8--8--8-|----|
|-8----8--8--8--8-|----|


                        ~
  E E  E E S S S..  S S E   E E  E E S S S. Q
|-------------------------|--------------------|
|-------------------------|--------------------|
|-------------------------|--------------------|
|-0-0-/7-------3---/5p0---|-0-0-/7-------3--5--|
|-0-0----5-0h1----------3-|-0-0----5-0h1----3--|
|-0-0---------------------|-0-0----------------|


                        ~           ~
  E E  E E S S S..  S S E   E E   E E
|-------------------------|-------------|
|-------------------------|-------------|
|-------------------------|-------------|
|-0-0-/7-------3---/5p0---|-0-0--/8-----|
|-0-0----5-0h1----------3-|-0-0-----7---|
|-0-0---------------------|-0-0---------|


  PM------------|                         ~
  S S S S s s s s   E E  E E S S S..  S S E E
|-----------------|---------------------------|
|-----------------|---------------------------|
|-----------------|---------------------------|
|-----------------|-0-0-/7-------3---/5p0---0-|
|---------0-1-3-5-|-0-0----5-0h1----------3-0-|
|-0h1-3-5---------|-0-0---------------------0-|


                                           ~          ~
  E  E E S S S. Q  E E    E E S S S..  S S E E E  E   E
|----------------------|----------------------------|-----|
|----------------------|----------------------------|-----|
|----------------------|----------------------------|-----|
|-0-/7-------3--5--0-0-|-/7-------3---/5p0---0-0-/8-|-----|
|-0----5-0h1----3--0-0-|----5-0h1----------3-0-0----|-7---|
|-0----------------0-0-|---------------------0-0----|-----|


  PM------------|
  S S S S s s s s   H    H      H    H      H    H      H    E  E  E  E
|-----------------|-----------|-----------|-----------|-----------------|
|-----------------|------3----|-----------|-----------|-----------------|
|-----------------|------2----|------5----|------7----|--------10-10-10-|
|-----------------|-0----0----|-3----5----|-5----7----|-8----8--8--8--8-|
|---------0-1-3-5-|-0---------|-3----3----|-5----5----|-8----8--8--8--8-|
|-0h1-3-5---------|-0---------|-3----3----|-5----5----|-8----8--8--8--8-|


  |-3-|      |-3-|        |-3-|   |-3-|   |-3-|   |-3-|
  S S S Q.   S S S Q.     S S S E S S S E S S S E S S S E
|-----------------------|---------------------------------|
|-----------------------|---------------------------------|
|-----------------------|---------------------------------|
|-0-0-0------0-0-0------|-0-0-0---0-0-0---0-0-0---0-0-0---|
|-0-0-0------0-0-0------|-0-0-0---0-0-0---0-0-0---0-0-0---|
|-0-0-0------0-0-0------|-0-0-0---0-0-0---0-0-0---0-0-0---|


  |-3-|      |-3-|        |-3-|   |-3-|
  S S S Q.   S S S Q.     S S S E S S S E H
|-----------------------|----------------------|
|-----------------------|----------------------|
|-----------------------|----------------------|
|-0-0-0------0-0-0------|-0-0-0---0-0-0---0----|
|-0-0-0------0-0-0------|-0-0-0---0-0-0---0----|
|-0-0-0------0-0-0------|-0-0-0---0-0-0---0----|


  |-3-|      |-3-|        |-3-|   |-3-|   |-3-|   |-3-|
  S S S Q.   S S S Q.     S S S E S S S E S S S E S S S E
|-----------------------|---------------------------------|
|-----------------------|---------------------------------|
|-----------------------|---------------------------------|
|-0-0-0------0-0-0------|-0-0-0---0-0-0---0-0-0---0-0-0---|
|-0-0-0------0-0-0------|-0-0-0---0-0-0---0-0-0---0-0-0---|
|-0-0-0------0-0-0------|-0-0-0---0-0-0---0-0-0---0-0-0---|


                                          PM------------|
  |-3-|      |-3-|        |-3-|   |-3-|
  S S S Q.   S S S Q.     S S S E S S S E S S S S s s s s
|-----------------------|---------------------------------|
|-----------------------|---------------------------------|
|-----------------------|---------------------------------|
|-0-0-0------0-0-0------|-0-0-0---0-0-0-------------------|
|-0-0-0------0-0-0------|-0-0-0---0-0-0-----------0-1-3-5-|
|-0-0-0------0-0-0------|-0-0-0---0-0-0---0h1-3-5---------|


  Gtr V
              ~               ~~~                 ~                ~~
  e      E  E Q         E  E  E.   E      E E     Q        E E     E.
|--------------------------------|------------------------------------|
|--------------------------------|------------------------------------|
|-----------7--------------9-----|----------5----------------7--------|
|-------/7--7-7--------/8--8--8--|-------/5-5-----5-------/7-7-----7--|
|-------/8----8-------/10----10--|-------/7-------7-------/8-------8--|
|--------------------------------|------------------------------------|
|
| Gtr I
| |-3-|         |-3-|              |-3-|    |-3-|   |-3-|    |-3-|
| S S S  Q.     S S S   Q.         S S S  E S S S E S S S  E S S S E
|--------------------------------|------------------------------------|
|--------------------------------|------------------------------------|
|--------------------------------|------------------------------------|
|-0-0-0---------0-0-0------------|-0-0-0----0-0-0---0-0-0----0-0-0----|
|-0-0-0---------0-0-0------------|-0-0-0----0-0-0---0-0-0----0-0-0----|
|-0-0-0---------0-0-0------------|-0-0-0----0-0-0---0-0-0----0-0-0----|


               ~               ~~                                      ~~~~~~~~~
  E      E   E Q        E   E  Q      S    S    S  S   S    S    S  S  Q   Q
|---------------------------------|-----------------------------18-17-----20b22----|
|-------/6--10-6-------/8--11-----|------------------------17---20-18-15--20b22----|
|-------/7--10-7-------/9--12-12--|------------12-15-/18---18----------------------|
|------------------------------8--|-/12---15----8-12-/14--------------19-----------|
|---------------------------------|--/8---12---------------------------------------|
|---------------------------------|------------------------------------------------|
|
| |-3-|          |-3-|                |--3---|         |--3---|
| S S S  Q.      S S S  Q.            S S    S  E      S S    S  E     H
|---------------------------------|------------------------------------------------|
|---------------------------------|------------------------------------3-----------|
|---------------------------------|------------------------------------2-----------|
|-0-0-0----------0-0-0------------|---0-0----0---------0-0----0--------0-----------|
|-0-0-0----------0-0-0------------|---0-0----0---------0-0----0--------0-----------|
|-0-0-0----------0-0-0------------|---0-0----0---------0-0----0--------0-----------|


  Gtr I
  |-3-|      |-3-|        |-3-|   |-3-|   |-3-|   |-3-|
  S S S Q.   S S S Q.     S S S E S S S E S S S E S S S E
|-----------------------|---------------------------------|
|-----------------------|---------------------------------|
|-----------------------|---------------------------------|
|-0-0-0------0-0-0------|-0-0-0---0-0-0---0-0-0---0-0-0---|
|-0-0-0------0-0-0------|-0-0-0---0-0-0---0-0-0---0-0-0---|
|-0-0-0------0-0-0------|-0-0-0---0-0-0---0-0-0---0-0-0---|


                                          PM------------|
  |-3-|      |-3-|        |-3-|   |-3-|
  S S S Q.   S S S Q.     S S S E S S S E S S S S s s s s
|-----------------------|---------------------------------|
|-----------------------|---------------------------------|
|-----------------------|---------------------------------|
|-0-0-0------0-0-0------|-0-0-0---0-0-0-------------------|
|-0-0-0------0-0-0------|-0-0-0---0-0-0-----------0-1-3-5-|
|-0-0-0------0-0-0------|-0-0-0---0-0-0---0h1-3-5---------|



Duration Legend
---------------
W - whole; H - half; Q - quarter; E - 8th; S - 16th; T - 32nd; X - 64th; a - acciaccatura
+ - note tied to previous; . - note dotted; .. - note double dotted
Uncapitalized letters represent notes that are staccato (1/2 duration)
Irregular groupings are notated above the duration line
Duration letters will always appear directly above the note/fret number it represents the
duration for.  Duration letters with no fret number below them represent rests.  Multi-
bar rests are notated in the form Wxn, where n is the number of bars to rest for.  Low
melody durations appear below the staff

Tablature Legend
----------------
 h   - hammer-on
 p   - pull-off
 b   - bend
 pb  - pre-bend
 r   - bend release (if no number after the r, then release immediately)
 /\  - slide into or out of (from/to "nowhere")
 s   - legato slide
 S   - shift slide
<n> - natural harmonic
[n]  - artificial harmonic
n(n) - tapped harmonic
 ~   - vibrato
 tr  - trill
 T   - tap
 TP  - trem. picking
 PM  - palm muting
\n/  - tremolo bar dip; n = amount to dip
 \n  - tremolo bar down
 n/  - tremolo bar up
/n\  - tremolo bar inverted dip
 =   - hold bend; also acts as connecting device for hammers/pulls
 <> - volume swell (louder/softer)
 x   - on rhythm slash represents muted slash
 o   - on rhythm slash represents single note slash

Misc Legend
-----------
 |  - bar
||  - double bar
||o - repeat start
o|| - repeat end
*|  - double bar (ending)
 :  - bar (freetime)
 $  - Segno
 &  - Coda
Tempo markers - <E/E./Q/Q./H/H.> = BPM(8/16=s8/s16), where s8 = swing 8ths, s16 = swing 16ths


** Generated using Power Tab Editor by Brad Larsen: The Official Power Tab Web Site